  0
SECTION
  2
HEADER
  9
$ACADVER
  1
AC1015
  9
$ACADMAINTVER
 70
     6
  9
$DWGCODEPAGE
  3
ANSI_1252
  9
$INSBASE
 10
0.0
 20
0.0
 30
0.0
  9
$EXTMIN
 10
-53.99113599999999
 20
-16.0
 30
0.0
  9
$EXTMAX
 10
775.9993709999999
 20
0.0
 30
0.0
  9
$LIMMIN
 10
0.0
 20
0.0
  9
$LIMMAX
 10
80300.0
 20
57400.0
  9
$ORTHOMODE
 70
     1
  9
$REGENMODE
 70
     1
  9
$FILLMODE
 70
     1
  9
$QTEXTMODE
 70
     0
  9
$MIRRTEXT
 70
     0
  9
$LTSCALE
 40
500.0
  9
$ATTMODE
 70
     1
  9
$TEXTSIZE
 40
75.0
  9
$TRACEWID
 40
0.05
  9
$TEXTSTYLE
  7
STANDARD
  9
$CLAYER
  8
0
  9
$CELTYPE
  6
BYLAYER
  9
$CECOLOR
 62
   256
  9
$CELTSCALE
 40
1.0
  9
$DISPSILH
 70
     0
  9
$DIMSCALE
 40
1.0
  9
$DIMASZ
 40
2.0
  9
$DIMEXO
 40
2.0
  9
$DIMDLI
 40
0.0
  9
$DIMRND
 40
0.0
  9
$DIMDLE
 40
5.0
  9
$DIMEXE
 40
5.0
  9
$DIMTP
 40
0.0
  9
$DIMTM
 40
0.0
  9
$DIMTXT
 40
3.0
  9
$DIMCEN
 40
0.0
  9
$DIMTSZ
 40
0.0
  9
$DIMTOL
 70
     0
  9
$DIMLIM
 70
     0
  9
$DIMTIH
 70
     0
  9
$DIMTOH
 70
     0
  9
$DIMSE1
 70
     0
  9
$DIMSE2
 70
     0
  9
$DIMTAD
 70
     1
  9
$DIMZIN
 70
     0
  9
$DIMBLK
  1

  9
$DIMASO
 70
     1
  9
$DIMSHO
 70
     1
  9
$DIMPOST
  1

  9
$DIMAPOST
  1

  9
$DIMALT
 70
     0
  9
$DIMALTD
 70
     0
  9
$DIMALTF
 40
25.4
  9
$DIMLFAC
 40
1.0
  9
$DIMTOFL
 70
     1
  9
$DIMTVP
 40
0.0
  9
$DIMTIX
 70
     0
  9
$DIMSOXD
 70
     0
  9
$DIMSAH
 70
     0
  9
$DIMBLK1
  1

  9
$DIMBLK2
  1

  9
$DIMSTYLE
  2
STANDARD
  9
$DIMCLRD
 70
   256
  9
$DIMCLRE
 70
   256
  9
$DIMCLRT
 70
   256
  9
$DIMTFAC
 40
0.3333333333333333
  9
$DIMGAP
 40
2.0
  9
$DIMJUST
 70
     0
  9
$DIMSD1
 70
     0
  9
$DIMSD2
 70
     0
  9
$DIMTOLJ
 70
     1
  9
$DIMTZIN
 70
     0
  9
$DIMALTZ
 70
     0
  9
$DIMALTTZ
 70
     0
  9
$DIMUPT
 70
     0
  9
$DIMDEC
 70
     4
  9
$DIMTDEC
 70
     4
  9
$DIMALTU
 70
     2
  9
$DIMALTTD
 70
     2
  9
$DIMTXSTY
  7
STANDARD
  9
$DIMAUNIT
 70
     0
  9
$DIMADEC
 70
     0
  9
$DIMALTRND
 40
0.0
  9
$DIMAZIN
 70
     0
  9
$DIMDSEP
 70
    46
  9
$DIMATFIT
 70
     3
  9
$DIMFRAC
 70
     0
  9
$DIMLDRBLK
  1

  9
$DIMLUNIT
 70
     2
  9
$DIMLWD
 70
    -2
  9
$DIMLWE
 70
    -2
  9
$DIMTMOVE
 70
     0
  9
$LUNITS
 70
     2
  9
$LUPREC
 70
     0
  9
$SKETCHINC
 40
50.0
  9
$FILLETRAD
 40
6.0
  9
$AUNITS
 70
     0
  9
$AUPREC
 70
     2
  9
$MENU
  1
C:\AutoCAD\R13\win\SUPPORT\ACAD
  9
$ELEVATION
 40
0.0
  9
$PELEVATION
 40
0.0
  9
$THICKNESS
 40
0.0
  9
$LIMCHECK
 70
     0
  9
$CHAMFERA
 40
0.0
  9
$CHAMFERB
 40
0.0
  9
$CHAMFERC
 40
0.0
  9
$CHAMFERD
 40
0.0
  9
$SKPOLY
 70
     0
  9
$TDCREATE
 40
2450734.666541782
  9
$TDUCREATE
 40
2450734.229041782
  9
$TDUPDATE
 40
2453063.454468391
  9
$TDUUPDATE
 40
2453063.016968391
  9
$TDINDWG
 40
0.3744131250
  9
$TDUSRTIMER
 40
0.3744131250
  9
$USRTIMER
 70
     1
  9
$ANGBASE
 50
0.0
  9
$ANGDIR
 70
     0
  9
$PDMODE
 70
     3
  9
$PDSIZE
 40
100.0
  9
$PLINEWID
 40
0.0
  9
$SPLFRAME
 70
     0
  9
$SPLINETYPE
 70
     6
  9
$SPLINESEGS
 70
     8
  9
$HANDSEED
  5
8B
  9
$SURFTAB1
 70
     6
  9
$SURFTAB2
 70
     6
  9
$SURFTYPE
 70
     6
  9
$SURFU
 70
     6
  9
$SURFV
 70
     6
  9
$UCSBASE
  2

  9
$UCSNAME
  2

  9
$UCSORG
 10
0.0
 20
0.0
 30
0.0
  9
$UCSXDIR
 10
1.0
 20
0.0
 30
0.0
  9
$UCSYDIR
 10
0.0
 20
1.0
 30
0.0
  9
$UCSORTHOREF
  2

  9
$UCSORTHOVIEW
 70
     0
  9
$UCSORGTOP
 10
0.0
 20
0.0
 30
0.0
  9
$UCSORGBOTTOM
 10
0.0
 20
0.0
 30
0.0
  9
$UCSORGLEFT
 10
0.0
 20
0.0
 30
0.0
  9
$UCSORGRIGHT
 10
0.0
 20
0.0
 30
0.0
  9
$UCSORGFRONT
 10
0.0
 20
0.0
 30
0.0
  9
$UCSORGBACK
 10
0.0
 20
0.0
 30
0.0
  9
$PUCSBASE
  2

  9
$PUCSNAME
  2

  9
$PUCSORG
 10
0.0
 20
0.0
 30
0.0
  9
$PUCSXDIR
 10
1.0
 20
0.0
 30
0.0
  9
$PUCSYDIR
 10
0.0
 20
1.0
 30
0.0
  9
$PUCSORTHOREF
  2

  9
$PUCSORTHOVIEW
 70
     0
  9
$PUCSORGTOP
 10
0.0
 20
0.0
 30
0.0
  9
$PUCSORGBOTTOM
 10
0.0
 20
0.0
 30
0.0
  9
$PUCSORGLEFT
 10
0.0
 20
0.0
 30
0.0
  9
$PUCSORGRIGHT
 10
0.0
 20
0.0
 30
0.0
  9
$PUCSORGFRONT
 10
0.0
 20
0.0
 30
0.0
  9
$PUCSORGBACK
 10
0.0
 20
0.0
 30
0.0
  9
$USERI1
 70
     0
  9
$USERI2
 70
     0
  9
$USERI3
 70
     0
  9
$USERI4
 70
     0
  9
$USERI5
 70
     0
  9
$USERR1
 40
0.0
  9
$USERR2
 40
0.0
  9
$USERR3
 40
0.0
  9
$USERR4
 40
0.0
  9
$USERR5
 40
100.0
  9
$WORLDVIEW
 70
     1
  9
$SHADEDGE
 70
     3
  9
$SHADEDIF
 70
    70
  9
$TILEMODE
 70
     1
  9
$MAXACTVP
 70
    16
  9
$PINSBASE
 10
0.0
 20
0.0
 30
0.0
  9
$PLIMCHECK
 70
     0
  9
$PEXTMIN
 10
0.0
 20
0.0
 30
0.0
  9
$PEXTMAX
 10
801.0
 20
575.0
 30
0.0
  9
$PLIMMIN
 10
0.0
 20
0.0
  9
$PLIMMAX
 10
803.0
 20
574.0
  9
$UNITMODE
 70
     0
  9
$VISRETAIN
 70
     1
  9
$PLINEGEN
 70
     1
  9
$PSLTSCALE
 70
     0
  9
$TREEDEPTH
 70
  3020
  9
$CMLSTYLE
  2
STANDARD
  9
$CMLJUST
 70
     0
  9
$CMLSCALE
 40
1.0
  9
$PROXYGRAPHICS
 70
     1
  9
$MEASUREMENT
 70
     1
  9
$CELWEIGHT
370
    -1
  9
$ENDCAPS
280
     0
  9
$JOINSTYLE
280
     0
  9
$LWDISPLAY
290
     0
  9
$INSUNITS
 70
     0
  9
$HYPERLINKBASE
  1

  9
$STYLESHEET
  1

  9
$XEDIT
290
     1
  9
$CEPSNTYPE
380
     0
  9
$PSTYLEMODE
290
     1
  9
$FINGERPRINTGUID
  2
{FD5FAFEF-C7D7-11D5-9AB3-006067068FD3}
  9
$VERSIONGUID
  2
{DE31277C-E360-4AA7-BCD4-7934BFD542F7}
  9
$EXTNAMES
290
     1
  9
$PSVPSCALE
 40
0.0
  9
$OLESTARTUP
290
     0
  0
ENDSEC
  0
SECTION
  2
CLASSES
  0
CLASS
  1
LWPOLYLINE
  2
AcDbPolyline
  3
AutoCAD 2000
 90
    32768
280
     0
281
     1
  0
CLASS
  1
DICTIONARYVAR
  2
AcDbDictionaryVar
  3
AutoCAD 2000
 90
        0
280
     0
281
     0
  0
CLASS
  1
ACDBDICTIONARYWDFLT
  2
AcDbDictionaryWithDefault
  3
AutoCAD 2000
 90
        0
280
     0
281
     0
  0
CLASS
  1
ACDBPLACEHOLDER
  2
AcDbPlaceHolder
  3
AutoCAD 2000
 90
        0
280
     0
281
     0
  0
CLASS
  1
LAYOUT
  2
AcDbLayout
  3
AutoCAD 2000
 90
        0
280
     0
281
     0
  0
CLASS
  1
LONG_TRANSACTION
  2
AcDbLongTransaction
  3
AutoCAD 2000
 90
    32768
280
     0
281
     0
  0
CLASS
  1
LWPOLYLINE
  2
AcDbPolyline
  3
AutoCAD 2000
 90
    32768
280
     0
281
     1
  0
CLASS
  1
HATCH
  2
AcDbHatch
  3
AutoCAD 2000
 90
    32768
280
     0
281
     1
  0
CLASS
  1
XRECORD
  2
AcDbXrecord
  3
AutoCAD 2000
 90
    32768
280
     0
281
     0
  0
ENDSEC
  0
SECTION
  2
TABLES
  0
TABLE
  2
VPORT
  5
1D
330
0
100
AcDbSymbolTable
 70
     2
  0
VPORT
  5
6A
330
1D
100
AcDbSymbolTableRecord
100
AcDbViewportTableRecord
  2
*Active
 70
     0
 10
0.0
 20
0.0
 11
1.0
 21
1.0
 12
356.4147961892101
 22
-2.967781953387941
 13
0.0
 23
0.0
 14
5.0
 24
5.0
 15
10.0
 25
10.0
 16
0.0
 26
0.0
 36
1.0
 17
0.0
 27
0.0
 37
0.0
 40
593.6235691020912
 41
1.991596638655462
 42
50.0
 43
0.0
 44
0.0
 50
0.0
 51
0.0
 71
     0
 72
   100
 73
     1
 74
     0
 75
     0
 76
     0
 77
     0
 78
     2
281
     0
 65
     1
110
0.0
120
0.0
130
0.0
111
1.0
121
0.0
131
0.0
112
0.0
122
1.0
132
0.0
 79
     0
146
0.0
  0
ENDTAB
  0
TABLE
  2
LTYPE
  5
18
330
0
100
AcDbSymbolTable
 70
     1
  0
LTYPE
  5
19
330
18
100
AcDbSymbolTableRecord
100
AcDbLinetypeTableRecord
  2
BYBLOCK
 70
     0
  3

 72
    65
 73
     0
 40
0.0
  0
LTYPE
  5
1A
330
18
100
AcDbSymbolTableRecord
100
AcDbLinetypeTableRecord
  2
BYLAYER
 70
     0
  3

 72
    65
 73
     0
 40
0.0
  0
LTYPE
  5
A
330
18
100
AcDbSymbolTableRecord
100
AcDbLinetypeTableRecord
  2
CONTINUOUS
 70
     0
  3
Solid line
 72
    65
 73
     0
 40
0.0
  0
ENDTAB
  0
TABLE
  2
LAYER
  5
14
330
0
100
AcDbSymbolTable
 70
     2
  0
LAYER
  5
6
330
14
100
AcDbSymbolTableRecord
100
AcDbLayerTableRecord
  2
0
 70
     0
 62
     7
  6
CONTINUOUS
370
    -3
390
7
  0
LAYER
  5
2B
330
14
100
AcDbSymbolTableRecord
100
AcDbLayerTableRecord
  2
BM
 70
     0
 62
     7
  6
CONTINUOUS
370
    -3
390
7
  0
ENDTAB
  0
TABLE
  2
STYLE
  5
15
330
0
100
AcDbSymbolTable
 70
     1
  0
STYLE
  5
16
330
15
100
AcDbSymbolTableRecord
100
AcDbTextStyleTableRecord
  2
STANDARD
 70
     0
 40
0.0
 41
1.0
 50
0.0
 71
     0
 42
75.0
  3
isocp.shx
  4

  0
ENDTAB
  0
TABLE
  2
VIEW
  5
1B
330
0
100
AcDbSymbolTable
 70
     0
  0
ENDTAB
  0
TABLE
  2
UCS
  5
1C
330
0
100
AcDbSymbolTable
 70
     0
  0
ENDTAB
  0
TABLE
  2
APPID
  5
1F
330
0
100
AcDbSymbolTable
 70
     1
  0
APPID
  5
20
330
1F
100
AcDbSymbolTableRecord
100
AcDbRegAppTableRecord
  2
ACAD
 70
     0
  0
ENDTAB
  0
TABLE
  2
DIMSTYLE
  5
21
330
0
100
AcDbSymbolTable
 70
     1
100
AcDbDimStyleTable
 71
     1
340
22
  0
DIMSTYLE
105
22
330
21
100
AcDbSymbolTableRecord
100
AcDbDimStyleTableRecord
  2
STANDARD
 70
     0
271
     0
272
     0
279
     2
340
16
  0
ENDTAB
  0
TABLE
  2
BLOCK_RECORD
  5
1
330
0
100
AcDbSymbolTable
 70
     0
  0
BLOCK_RECORD
  5
2
102
{ACAD_XDICTIONARY
360
3
102
}
330
1
100
AcDbSymbolTableRecord
100
AcDbBlockTableRecord
  2
*MODEL_SPACE
340
C
  0
BLOCK_RECORD
  5
E
102
{ACAD_XDICTIONARY
360
F
102
}
330
1
100
AcDbSymbolTableRecord
100
AcDbBlockTableRecord
  2
*PAPER_SPACE
340
13
  0
ENDTAB
  0
ENDSEC
  0
SECTION
  2
BLOCKS
  0
BLOCK
  5
5
330
2
100
AcDbEntity
  8
0
100
AcDbBlockBegin
  2
*MODEL_SPACE
 70
     0
 10
0.0
 20
0.0
 30
0.0
  3
*MODEL_SPACE
  1

  0
ENDBLK
  5
B
330
2
100
AcDbEntity
  8
0
100
AcDbBlockEnd
  0
BLOCK
  5
11
330
E
100
AcDbEntity
 67
     1
  8
0
100
AcDbBlockBegin
  2
*PAPER_SPACE
 70
     0
 10
0.0
 20
0.0
 30
0.0
  3
*PAPER_SPACE
  1

  0
ENDBLK
  5
12
330
E
100
AcDbEntity
 67
     1
  8
0
100
AcDbBlockEnd
  0
ENDSEC
  0
SECTION
  2
ENTITIES
  0
LINE
  5
2A
330
2
100
AcDbEntity
  8
BM
100
AcDbLine
 10
672.7095099999999
 20
-3.001379999999999
 30
0.0
 11
657.151028
 21
-12.99862
 31
0.0
  0
ARC
  5
2C
330
2
100
AcDbEntity
  8
BM
100
AcDbCircle
 10
683.9282769999999
 20
-22.467831
 30
0.0
 40
22.467831
100
AcDbArc
 50
60.04459800000001
 51
119.955402
  0
LINE
  5
2D
330
2
100
AcDbEntity
  8
BM
100
AcDbLine
 10
710.705525
 20
-12.99862
 30
0.0
 11
695.1470429999999
 21
-3.001379999999999
 31
0.0
  0
ARC
  5
2E
330
2
100
AcDbEntity
  8
BM
100
AcDbCircle
 10
721.924292
 20
6.467830999999999
 30
0.0
 40
22.467831
100
AcDbArc
 50
240.0445979999999
 51
299.955402
  0
LINE
  5
2F
330
2
100
AcDbEntity
  8
BM
100
AcDbLine
 10
596.717479
 20
-3.001379999999999
 30
0.0
 11
581.1589969999999
 21
-12.99862
 31
0.0
  0
ARC
  5
30
330
2
100
AcDbEntity
  8
BM
100
AcDbCircle
 10
607.9362459999999
 20
-22.467831
 30
0.0
 40
22.467831
100
AcDbArc
 50
60.04459800000001
 51
119.955402
  0
LINE
  5
31
330
2
100
AcDbEntity
  8
BM
100
AcDbLine
 10
634.713495
 20
-12.99862
 30
0.0
 11
619.1550129999999
 21
-3.001379999999999
 31
0.0
  0
ARC
  5
32
330
2
100
AcDbEntity
  8
BM
100
AcDbCircle
 10
645.932261
 20
6.467830999999999
 30
0.0
 40
22.467831
100
AcDbArc
 50
240.0445979999999
 51
299.955402
  0
LINE
  5
33
330
2
100
AcDbEntity
  8
BM
100
AcDbLine
 10
520.725449
 20
-3.001379999999999
 30
0.0
 11
505.1669669999999
 21
-12.99862
 31
0.0
  0
ARC
  5
34
330
2
100
AcDbEntity
  8
BM
100
AcDbCircle
 10
531.9442149999999
 20
-22.467831
 30
0.0
 40
22.467831
100
AcDbArc
 50
60.04459800000001
 51
119.955402
  0
LINE
  5
35
330
2
100
AcDbEntity
  8
BM
100
AcDbLine
 10
558.721464
 20
-12.99862
 30
0.0
 11
543.162982
 21
-3.001379999999999
 31
0.0
  0
ARC
  5
36
330
2
100
AcDbEntity
  8
BM
100
AcDbCircle
 10
569.9402309999999
 20
6.467830999999999
 30
0.0
 40
22.467831
100
AcDbArc
 50
240.0445979999999
 51
299.955402
  0
LINE
  5
37
330
2
100
AcDbEntity
  8
BM
100
AcDbLine
 10
444.7334179999999
 20
-3.001379999999999
 30
0.0
 11
429.174936
 21
-12.99862
 31
0.0
  0
ARC
  5
38
330
2
100
AcDbEntity
  8
BM
100
AcDbCircle
 10
455.952184
 20
-22.467831
 30
0.0
 40
22.467831
100
AcDbArc
 50
60.04459800000001
 51
119.955402
  0
LINE
  5
39
330
2
100
AcDbEntity
  8
BM
100
AcDbLine
 10
482.7294329999999
 20
-12.99862
 30
0.0
 11
467.170951
 21
-3.001379999999999
 31
0.0
  0
ARC
  5
3A
330
2
100
AcDbEntity
  8
BM
100
AcDbCircle
 10
493.9481999999999
 20
6.467830999999999
 30
0.0
 40
22.467831
100
AcDbArc
 50
240.0445979999999
 51
299.955402
  0
LINE
  5
3B
330
2
100
AcDbEntity
  8
BM
100
AcDbLine
 10
368.741387
 20
-3.001379999999999
 30
0.0
 11
353.182905
 21
-12.99862
 31
0.0
  0
ARC
  5
3C
330
2
100
AcDbEntity
  8
BM
100
AcDbCircle
 10
379.9601539999999
 20
-22.467831
 30
0.0
 40
22.467831
100
AcDbArc
 50
60.04459800000001
 51
119.955402
  0
LINE
  5
3D
330
2
100
AcDbEntity
  8
BM
100
AcDbLine
 10
406.7374019999999
 20
-12.99862
 30
0.0
 11
391.17892
 21
-3.001379999999999
 31
0.0
  0
ARC
  5
3E
330
2
100
AcDbEntity
  8
BM
100
AcDbCircle
 10
417.9561689999999
 20
6.467830999999999
 30
0.0
 40
22.467831
100
AcDbArc
 50
240.0445979999999
 51
299.955402
  0
LINE
  5
3F
330
2
100
AcDbEntity
  8
BM
100
AcDbLine
 10
292.7493559999999
 20
-3.001379999999999
 30
0.0
 11
277.190874
 21
-12.99862
 31
0.0
  0
ARC
  5
40
330
2
100
AcDbEntity
  8
BM
100
AcDbCircle
 10
303.9681229999999
 20
-22.467831
 30
0.0
 40
22.467831
100
AcDbArc
 50
60.04459800000001
 51
119.955402
  0
LINE
  5
41
330
2
100
AcDbEntity
  8
BM
100
AcDbLine
 10
330.745372
 20
-12.99862
 30
0.0
 11
315.18689
 21
-3.001379999999999
 31
0.0
  0
ARC
  5
42
330
2
100
AcDbEntity
  8
BM
100
AcDbCircle
 10
341.9641379999999
 20
6.467830999999999
 30
0.0
 40
22.467831
100
AcDbArc
 50
240.0445979999999
 51
299.955402
  0
LINE
  5
43
330
2
100
AcDbEntity
  8
BM
100
AcDbLine
 10
216.7573259999999
 20
-3.001379999999999
 30
0.0
 11
201.198844
 21
-12.99862
 31
0.0
  0
ARC
  5
44
330
2
100
AcDbEntity
  8
BM
100
AcDbCircle
 10
227.976092
 20
-22.467831
 30
0.0
 40
22.467831
100
AcDbArc
 50
60.04459800000001
 51
119.955402
  0
LINE
  5
45
330
2
100
AcDbEntity
  8
BM
100
AcDbLine
 10
254.753341
 20
-12.99862
 30
0.0
 11
239.1948589999999
 21
-3.001379999999999
 31
0.0
  0
ARC
  5
46
330
2
100
AcDbEntity
  8
BM
100
AcDbCircle
 10
265.972108
 20
6.467830999999999
 30
0.0
 40
22.467831
100
AcDbArc
 50
240.0445979999999
 51
299.955402
  0
LINE
  5
47
330
2
100
AcDbEntity
  8
BM
100
AcDbLine
 10
140.765295
 20
-3.001379999999999
 30
0.0
 11
125.2068129999999
 21
-12.99862
 31
0.0
  0
ARC
  5
48
330
2
100
AcDbEntity
  8
BM
100
AcDbCircle
 10
151.9840609999999
 20
-22.467831
 30
0.0
 40
22.467831
100
AcDbArc
 50
60.04459800000001
 51
119.955402
  0
LINE
  5
49
330
2
100
AcDbEntity
  8
BM
100
AcDbLine
 10
178.76131
 20
-12.99862
 30
0.0
 11
163.202828
 21
-3.001379999999999
 31
0.0
  0
ARC
  5
4A
330
2
100
AcDbEntity
  8
BM
100
AcDbCircle
 10
189.9800769999999
 20
6.467830999999999
 30
0.0
 40
22.467831
100
AcDbArc
 50
240.0445979999999
 51
299.955402
  0
LINE
  5
4B
330
2
100
AcDbEntity
  8
BM
100
AcDbLine
 10
64.77326399999999
 20
-3.001379999999999
 30
0.0
 11
49.214782
 21
-12.99862
 31
0.0
  0
ARC
  5
4C
330
2
100
AcDbEntity
  8
BM
100
AcDbCircle
 10
75.99203100000001
 20
-22.467831
 30
0.0
 40
22.467831
100
AcDbArc
 50
60.04459800000001
 51
119.955402
  0
LINE
  5
4D
330
2
100
AcDbEntity
  8
BM
100
AcDbLine
 10
102.7692789999999
 20
-12.99862
 30
0.0
 11
87.210797
 21
-3.001379999999999
 31
0.0
  0
ARC
  5
4E
330
2
100
AcDbEntity
  8
BM
100
AcDbCircle
 10
113.988046
 20
6.467830999999999
 30
0.0
 40
22.467831
100
AcDbArc
 50
240.0445979999999
 51
299.955402
  0
LINE
  5
4F
330
2
100
AcDbEntity
  8
BM
100
AcDbLine
 10
-11.218767
 20
-3.001379999999999
 30
0.0
 11
-26.77724899999999
 21
-12.99862
 31
0.0
  0
ARC
  5
50
330
2
100
AcDbEntity
  8
BM
100
AcDbCircle
 10
0.0
 20
-22.467831
 30
0.0
 40
22.467831
100
AcDbArc
 50
60.04459800000001
 51
119.955402
  0
LINE
  5
51
330
2
100
AcDbEntity
  8
BM
100
AcDbLine
 10
26.77724899999999
 20
-12.99862
 30
0.0
 11
11.218767
 21
-3.001379999999999
 31
0.0
  0
ARC
  5
52
330
2
100
AcDbEntity
  8
BM
100
AcDbCircle
 10
37.996015
 20
6.467830999999999
 30
0.0
 40
22.467831
100
AcDbArc
 50
240.0445979999999
 51
299.955402
  0
LINE
  5
53
330
2
100
AcDbEntity
  8
BM
100
AcDbLine
 10
-49.214782
 20
-12.99862
 30
0.0
 11
-53.99113599999999
 21
-9.929530999999998
 31
0.0
  0
ARC
  5
54
330
2
100
AcDbEntity
  8
BM
100
AcDbCircle
 10
-37.996015
 20
6.467830999999999
 30
0.0
 40
22.467831
100
AcDbArc
 50
240.0445979999999
 51
299.955402
  0
LINE
  5
55
330
2
100
AcDbEntity
  8
BM
100
AcDbLine
 10
748.701541
 20
-3.001379999999999
 30
0.0
 11
733.143059
 21
-12.99862
 31
0.0
  0
ARC
  5
56
330
2
100
AcDbEntity
  8
BM
100
AcDbCircle
 10
759.9203069999999
 20
-22.467831
 30
0.0
 40
22.467831
100
AcDbArc
 50
60.04459800000001
 51
119.955402
  0
LINE
  5
57
330
2
100
AcDbEntity
  8
BM
100
AcDbLine
 10
775.9993709999999
 20
-6.124406999999999
 30
0.0
 11
771.139074
 21
-3.001379999999999
 31
0.0
  0
ENDSEC
  0
SECTION
  2
OBJECTS
  0
DICTIONARY
  5
9
330
0
100
AcDbDictionary
281
     1
  3
ACAD_COLOR
350
28
  3
ACAD_GROUP
350
24
  3
ACAD_LAYOUT
350
D
  3
ACAD_MATERIAL
350
27
  3
ACAD_MLINESTYLE
350
25
  3
ACAD_PLOTSETTINGS
350
26
  3
ACAD_PLOTSTYLENAME
350
8
  3
ACDBHEADERROUNDTRIPXREC
350
6B
  3
AcDbVariableDictionary
350
63
  0
DICTIONARY
  5
3
330
2
100
AcDbDictionary
280
     1
281
     1
  3
ACAD_LAYOUTSELFREF
360
4
  0
DICTIONARY
  5
F
330
E
100
AcDbDictionary
280
     1
281
     1
  3
ACAD_LAYOUTSELFREF
360
10
  0
DICTIONARY
  5
28
102
{ACAD_REACTORS
330
9
102
}
330
9
100
AcDbDictionary
281
     1
  0
DICTIONARY
  5
24
102
{ACAD_REACTORS
330
9
102
}
330
9
100
AcDbDictionary
281
     1
  0
DICTIONARY
  5
D
102
{ACAD_REACTORS
330
9
102
}
330
9
100
AcDbDictionary
281
     1
  3
Layout1
350
13
  3
Model
350
C
  0
DICTIONARY
  5
27
102
{ACAD_REACTORS
330
9
102
}
330
9
100
AcDbDictionary
281
     1
  0
DICTIONARY
  5
25
102
{ACAD_REACTORS
330
9
102
}
330
9
100
AcDbDictionary
281
     1
  3
STANDARD
350
29
  0
DICTIONARY
  5
26
102
{ACAD_REACTORS
330
9
102
}
330
9
100
AcDbDictionary
281
     1
  0
ACDBDICTIONARYWDFLT
  5
8
102
{ACAD_REACTORS
330
9
102
}
330
9
100
AcDbDictionary
281
     1
  3
Normal
350
7
100
AcDbDictionaryWithDefault
340
7
  0
DICTIONARY
  5
6B
102
{ACAD_REACTORS
330
9
102
}
330
9
100
AcDbDictionary
281
     1
  3
CEPSNTYPE
350
75
  3
FINGERPRINTGUID
350
76
  3
HYPERLINKBASE
350
6E
  3
INSUNITS
350
74
  3
LAYOUTDICT
350
70
  3
LWETCUNION
350
73
  3
PLOTSETDICT
350
71
  3
PLOTSTYLNAMDICT
350
72
  3
PSVPSCALE
350
78
  3
PUCSBASE
350
7B
  3
PUCSORGBACK
350
81
  3
PUCSORGBOTTOM
350
7D
  3
PUCSORGFRONT
350
80
  3
PUCSORGLEFT
350
7E
  3
PUCSORGRIGHT
350
7F
  3
PUCSORGTOP
350
7C
  3
PUCSORTHOREF
350
79
  3
PUCSORTHOVIEW
350
7A
  3
STYLESHEET
350
6F
  3
TSTACKALIGN
350
6C
  3
TSTACKSIZE
350
6D
  3
UCSBASE
350
84
  3
UCSORGBACK
350
8A
  3
UCSORGBOTTOM
350
86
  3
UCSORGFRONT
350
89
  3
UCSORGLEFT
350
87
  3
UCSORGRIGHT
350
88
  3
UCSORGTOP
350
85
  3
UCSORTHOREF
350
82
  3
UCSORTHOVIEW
350
83
  3
VERSIONGUID
350
77
  0
DICTIONARY
  5
63
102
{ACAD_REACTORS
330
9
102
}
330
9
100
AcDbDictionary
281
     1
  3
DIMASSOC
350
65
  3
HIDETEXT
350
64
  3
PROJECTNAME
350
66
  0
XRECORD
  5
4
102
{ACAD_REACTORS
330
3
102
}
330
3
100
AcDbXrecord
280
     1
340
2
  0
XRECORD
  5
10
102
{ACAD_REACTORS
330
F
102
}
330
F
100
AcDbXrecord
280
     1
340
E
  0
LAYOUT
  5
13
102
{ACAD_XDICTIONARY
360
61
102
}
102
{ACAD_REACTORS
330
D
102
}
330
D
100
AcDbPlotSettings
  1

  2
C:\PROGRAM FILES\ACAD2000\plotters\DesignJet 350C C4699A.pc3
  4

  6

 40
0.0
 41
0.0
 42
0.0
 43
0.0
 44
0.0
 45
0.0
 46
0.0
 47
0.0
 48
0.0
 49
0.0
140
0.0
141
0.0
142
1.0
143
1.0
 70
   688
 72
     0
 73
     0
 74
     5
  7
acad.ctb
 75
    16
147
1.0
148
0.0
149
0.0
100
AcDbLayout
  1
Layout1
 70
     0
 71
     1
 10
0.0
 20
0.0
 11
803.0
 21
574.0
 12
0.0
 22
0.0
 32
0.0
 14
0.0
 24
0.0
 34
0.0
 15
801.0
 25
575.0
 35
0.0
146
0.0
 13
0.0
 23
0.0
 33
0.0
 16
1.0
 26
0.0
 36
0.0
 17
0.0
 27
1.0
 37
0.0
 76
     0
330
E
  0
LAYOUT
  5
C
102
{ACAD_XDICTIONARY
360
5F
102
}
102
{ACAD_REACTORS
330
D
102
}
330
D
100
AcDbPlotSettings
  1

  2
BJ-330
  4
A4
  6

 40
4.109860897064208
 41
3.174999952316284
 42
4.10986328125
 43
3.17498779296875
 44
210.0438842773437
 45
296.8977661132812
 46
25.19
 47
-415.85
 48
100717.9280533926
 49
22036.9645249629
140
101840.1803003112
141
22188.40010875391
142
1.0
143
1.0
 70
 11940
 72
     1
 73
     1
 74
     4
  7
acad.ctb
 75
     0
147
1.0
148
-100717.9280533926
149
-22036.9645249629
100
AcDbLayout
  1
Model
 70
     1
 71
     0
 10
0.0
 20
0.0
 11
12.0
 21
9.0
 12
0.0
 22
0.0
 32
0.0
 14
0.0
 24
0.0
 34
0.0
 15
0.0
 25
0.0
 35
0.0
146
0.0
 13
0.0
 23
0.0
 33
0.0
 16
1.0
 26
0.0
 36
0.0
 17
0.0
 27
1.0
 37
0.0
 76
     0
330
2
  0
MLINESTYLE
  5
29
102
{ACAD_REACTORS
330
25
102
}
330
25
100
AcDbMlineStyle
  2
STANDARD
 70
     0
  3

 62
     0
 51
90.0
 52
90.0
 71
     2
 49
0.5
 62
   256
  6
BYLAYER
 49
-0.5
 62
   256
  6
BYLAYER
  0
ACDBPLACEHOLDER
  5
7
102
{ACAD_REACTORS
330
8
102
}
330
8
  0
XRECORD
  5
75
102
{ACAD_REACTORS
330
6B
102
}
330
6B
100
AcDbXrecord
280
     1
 90
        0
  0
XRECORD
  5
76
102
{ACAD_REACTORS
330
6B
102
}
330
6B
100
AcDbXrecord
280
     1
  1
{FD5FAFEF-C7D7-11D5-9AB3-006067068FD3}
  0
XRECORD
  5
6E
102
{ACAD_REACTORS
330
6B
102
}
330
6B
100
AcDbXrecord
280
     1
  1

  0
XRECORD
  5
74
102
{ACAD_REACTORS
330
6B
102
}
330
6B
100
AcDbXrecord
280
     1
 90
        0
  0
XRECORD
  5
70
102
{ACAD_REACTORS
330
6B
102
}
330
6B
100
AcDbXrecord
280
     1
340
D
  0
XRECORD
  5
73
102
{ACAD_REACTORS
330
6B
102
}
330
6B
100
AcDbXrecord
280
     1
 90
    10781
  0
XRECORD
  5
71
102
{ACAD_REACTORS
330
6B
102
}
330
6B
100
AcDbXrecord
280
     1
340
26
  0
XRECORD
  5
72
102
{ACAD_REACTORS
330
6B
102
}
330
6B
100
AcDbXrecord
280
     1
340
8
  0
XRECORD
  5
78
102
{ACAD_REACTORS
330
6B
102
}
330
6B
100
AcDbXrecord
280
     1
 40
0.0
  0
XRECORD
  5
7B
102
{ACAD_REACTORS
330
6B
102
}
330
6B
100
AcDbXrecord
280
     1
340
0
  0
XRECORD
  5
81
102
{ACAD_REACTORS
330
6B
102
}
330
6B
100
AcDbXrecord
280
     1
 10
0.0
 20
0.0
 30
0.0
  0
XRECORD
  5
7D
102
{ACAD_REACTORS
330
6B
102
}
330
6B
100
AcDbXrecord
280
     1
 10
0.0
 20
0.0
 30
0.0
  0
XRECORD
  5
80
102
{ACAD_REACTORS
330
6B
102
}
330
6B
100
AcDbXrecord
280
     1
 10
0.0
 20
0.0
 30
0.0
  0
XRECORD
  5
7E
102
{ACAD_REACTORS
330
6B
102
}
330
6B
100
AcDbXrecord
280
     1
 10
0.0
 20
0.0
 30
0.0
  0
XRECORD
  5
7F
102
{ACAD_REACTORS
330
6B
102
}
330
6B
100
AcDbXrecord
280
     1
 10
0.0
 20
0.0
 30
0.0
  0
XRECORD
  5
7C
102
{ACAD_REACTORS
330
6B
102
}
330
6B
100
AcDbXrecord
280
     1
 10
0.0
 20
0.0
 30
0.0
  0
XRECORD
  5
79
102
{ACAD_REACTORS
330
6B
102
}
330
6B
100
AcDbXrecord
280
     1
340
0
  0
XRECORD
  5
7A
102
{ACAD_REACTORS
330
6B
102
}
330
6B
100
AcDbXrecord
280
     1
 70
     0
  0
XRECORD
  5
6F
102
{ACAD_REACTORS
330
6B
102
}
330
6B
100
AcDbXrecord
280
     1
  1

  0
XRECORD
  5
6C
102
{ACAD_REACTORS
330
6B
102
}
330
6B
100
AcDbXrecord
280
     1
 90
        1
  0
XRECORD
  5
6D
102
{ACAD_REACTORS
330
6B
102
}
330
6B
100
AcDbXrecord
280
     1
 90
       70
  0
XRECORD
  5
84
102
{ACAD_REACTORS
330
6B
102
}
330
6B
100
AcDbXrecord
280
     1
340
0
  0
XRECORD
  5
8A
102
{ACAD_REACTORS
330
6B
102
}
330
6B
100
AcDbXrecord
280
     1
 10
0.0
 20
0.0
 30
0.0
  0
XRECORD
  5
86
102
{ACAD_REACTORS
330
6B
102
}
330
6B
100
AcDbXrecord
280
     1
 10
0.0
 20
0.0
 30
0.0
  0
XRECORD
  5
89
102
{ACAD_REACTORS
330
6B
102
}
330
6B
100
AcDbXrecord
280
     1
 10
0.0
 20
0.0
 30
0.0
  0
XRECORD
  5
87
102
{ACAD_REACTORS
330
6B
102
}
330
6B
100
AcDbXrecord
280
     1
 10
0.0
 20
0.0
 30
0.0
  0
XRECORD
  5
88
102
{ACAD_REACTORS
330
6B
102
}
330
6B
100
AcDbXrecord
280
     1
 10
0.0
 20
0.0
 30
0.0
  0
XRECORD
  5
85
102
{ACAD_REACTORS
330
6B
102
}
330
6B
100
AcDbXrecord
280
     1
 10
0.0
 20
0.0
 30
0.0
  0
XRECORD
  5
82
102
{ACAD_REACTORS
330
6B
102
}
330
6B
100
AcDbXrecord
280
     1
340
0
  0
XRECORD
  5
83
102
{ACAD_REACTORS
330
6B
102
}
330
6B
100
AcDbXrecord
280
     1
 70
     0
  0
XRECORD
  5
77
102
{ACAD_REACTORS
330
6B
102
}
330
6B
100
AcDbXrecord
280
     1
  1
{DE31277C-E360-4AA7-BCD4-7934BFD542F7}
  0
DICTIONARYVAR
  5
65
102
{ACAD_REACTORS
330
63
102
}
330
63
100
DictionaryVariables
280
     0
  1
2
  0
DICTIONARYVAR
  5
64
102
{ACAD_REACTORS
330
63
102
}
330
63
100
DictionaryVariables
280
     0
  1
1
  0
DICTIONARYVAR
  5
66
102
{ACAD_REACTORS
330
63
102
}
330
63
100
DictionaryVariables
280
     0
  1

  0
DICTIONARY
  5
61
330
13
100
AcDbDictionary
280
     1
281
     1
  3
ACAD_XREC_ROUNDTRIP
360
62
  0
DICTIONARY
  5
5F
330
C
100
AcDbDictionary
280
     1
281
     1
  3
ACAD_XREC_ROUNDTRIP
360
60
  0
XRECORD
  5
62
102
{ACAD_REACTORS
330
61
102
}
330
61
100
AcDbXrecord
280
     1
102
SHADEPLOT
 70
     0
102
SHADEPLOTRESLEVEL
 70
     2
102
SHADEPLOTCUSTOMDPI
 70
   300
  0
XRECORD
  5
60
102
{ACAD_REACTORS
330
5F
102
}
330
5F
100
AcDbXrecord
280
     1
102
SHADEPLOT
 70
     0
102
SHADEPLOTRESLEVEL
 70
     2
102
SHADEPLOTCUSTOMDPI
 70
   180
  0
ENDSEC
  0
EOF
