  0
SECTION
  2
HEADER
  9
$ACADVER
  1
AC1014
  9
$ACADMAINTVER
 70
     9
  9
$DWGCODEPAGE
  3
ANSI_1252
  9
$INSBASE
 10
-7.435963953123025
 20
1.780022787047471
 30
0.0
  9
$EXTMIN
 10
0.0
 20
-1.780038011905613
 30
0.0
  9
$EXTMAX
 10
846.9307520749044
 20
4.219980074868741
 30
0.0
  9
$LIMMIN
 10
0.0
 20
0.0
  9
$LIMMAX
 10
420.0
 20
297.0
  9
$ORTHOMODE
 70
     0
  9
$REGENMODE
 70
     1
  9
$FILLMODE
 70
     1
  9
$QTEXTMODE
 70
     0
  9
$MIRRTEXT
 70
     0
  9
$DRAGMODE
 70
     2
  9
$LTSCALE
 40
1.0
  9
$OSMODE
 70
    39
  9
$ATTMODE
 70
     1
  9
$TEXTSIZE
 40
2.5
  9
$TRACEWID
 40
1.0
  9
$TEXTSTYLE
  7
STANDARD
  9
$CLAYER
  8
0
  9
$CELTYPE
  6
BYLAYER
  9
$CECOLOR
 62
     1
  9
$CELTSCALE
 40
1.0
  9
$DELOBJ
 70
     1
  9
$DISPSILH
 70
     0
  9
$DIMSCALE
 40
1.0
  9
$DIMASZ
 40
2.5
  9
$DIMEXO
 40
0.625
  9
$DIMDLI
 40
3.75
  9
$DIMRND
 40
0.0
  9
$DIMDLE
 40
0.0
  9
$DIMEXE
 40
1.25
  9
$DIMTP
 40
0.0
  9
$DIMTM
 40
0.0
  9
$DIMTXT
 40
2.5
  9
$DIMCEN
 40
2.5
  9
$DIMTSZ
 40
0.0
  9
$DIMTOL
 70
     0
  9
$DIMLIM
 70
     0
  9
$DIMTIH
 70
     0
  9
$DIMTOH
 70
     0
  9
$DIMSE1
 70
     0
  9
$DIMSE2
 70
     0
  9
$DIMTAD
 70
     1
  9
$DIMZIN
 70
     8
  9
$DIMBLK
  1

  9
$DIMASO
 70
     1
  9
$DIMSHO
 70
     1
  9
$DIMPOST
  1

  9
$DIMAPOST
  1

  9
$DIMALT
 70
     0
  9
$DIMALTD
 70
     3
  9
$DIMALTF
 40
0.03937007874016
  9
$DIMLFAC
 40
1.0
  9
$DIMTOFL
 70
     1
  9
$DIMTVP
 40
0.0
  9
$DIMTIX
 70
     0
  9
$DIMSOXD
 70
     0
  9
$DIMSAH
 70
     0
  9
$DIMBLK1
  1

  9
$DIMBLK2
  1

  9
$DIMSTYLE
  2
ISO-25
  9
$DIMCLRD
 70
     0
  9
$DIMCLRE
 70
     0
  9
$DIMCLRT
 70
     0
  9
$DIMTFAC
 40
1.0
  9
$DIMGAP
 40
0.625
  9
$DIMJUST
 70
     0
  9
$DIMSD1
 70
     0
  9
$DIMSD2
 70
     0
  9
$DIMTOLJ
 70
     0
  9
$DIMTZIN
 70
     8
  9
$DIMALTZ
 70
     0
  9
$DIMALTTZ
 70
     0
  9
$DIMFIT
 70
     3
  9
$DIMUPT
 70
     0
  9
$DIMUNIT
 70
     2
  9
$DIMDEC
 70
     2
  9
$DIMTDEC
 70
     2
  9
$DIMALTU
 70
     2
  9
$DIMALTTD
 70
     3
  9
$DIMTXSTY
  7
STANDARD
  9
$DIMAUNIT
 70
     0
  9
$LUNITS
 70
     2
  9
$LUPREC
 70
     4
  9
$SKETCHINC
 40
1.0
  9
$FILLETRAD
 40
0.0
  9
$AUNITS
 70
     0
  9
$AUPREC
 70
     0
  9
$MENU
  1
.
  9
$ELEVATION
 40
0.0
  9
$PELEVATION
 40
0.0
  9
$THICKNESS
 40
0.0
  9
$LIMCHECK
 70
     0
  9
$BLIPMODE
 70
     0
  9
$CHAMFERA
 40
10.0
  9
$CHAMFERB
 40
10.0
  9
$CHAMFERC
 40
20.0
  9
$CHAMFERD
 40
0.0
  9
$SKPOLY
 70
     0
  9
$TDCREATE
 40
2453248.647022916
  9
$TDUPDATE
 40
2453293.504672500
  9
$TDINDWG
 40
0.0200007060
  9
$TDUSRTIMER
 40
0.0200000116
  9
$USRTIMER
 70
     1
  9
$ANGBASE
 50
0.0
  9
$ANGDIR
 70
     0
  9
$PDMODE
 70
     0
  9
$PDSIZE
 40
0.0
  9
$PLINEWID
 40
0.0
  9
$COORDS
 70
     1
  9
$SPLFRAME
 70
     0
  9
$SPLINETYPE
 70
     6
  9
$SPLINESEGS
 70
     8
  9
$ATTDIA
 70
     0
  9
$ATTREQ
 70
     1
  9
$HANDLING
 70
  4097
  9
$HANDSEED
  5
34D
  9
$SURFTAB1
 70
     6
  9
$SURFTAB2
 70
     6
  9
$SURFTYPE
 70
     6
  9
$SURFU
 70
     6
  9
$SURFV
 70
     6
  9
$UCSNAME
  2

  9
$UCSORG
 10
0.0
 20
0.0
 30
0.0
  9
$UCSXDIR
 10
1.0
 20
0.0
 30
0.0
  9
$UCSYDIR
 10
0.0
 20
1.0
 30
0.0
  9
$PUCSNAME
  2

  9
$PUCSORG
 10
0.0
 20
0.0
 30
0.0
  9
$PUCSXDIR
 10
1.0
 20
0.0
 30
0.0
  9
$PUCSYDIR
 10
0.0
 20
1.0
 30
0.0
  9
$USERI1
 70
     0
  9
$USERI2
 70
     0
  9
$USERI3
 70
     0
  9
$USERI4
 70
     0
  9
$USERI5
 70
     0
  9
$USERR1
 40
0.0
  9
$USERR2
 40
0.0
  9
$USERR3
 40
0.0
  9
$USERR4
 40
0.0
  9
$USERR5
 40
0.0
  9
$WORLDVIEW
 70
     1
  9
$SHADEDGE
 70
     3
  9
$SHADEDIF
 70
    70
  9
$TILEMODE
 70
     1
  9
$MAXACTVP
 70
    48
  9
$PINSBASE
 10
0.0
 20
0.0
 30
0.0
  9
$PLIMCHECK
 70
     0
  9
$PEXTMIN
 10
1.000000000000000E+20
 20
1.000000000000000E+20
 30
1.000000000000000E+20
  9
$PEXTMAX
 10
-1.000000000000000E+20
 20
-1.000000000000000E+20
 30
-1.000000000000000E+20
  9
$PLIMMIN
 10
0.0
 20
0.0
  9
$PLIMMAX
 10
420.0
 20
297.0
  9
$UNITMODE
 70
     0
  9
$VISRETAIN
 70
     1
  9
$PLINEGEN
 70
     0
  9
$PSLTSCALE
 70
     1
  9
$TREEDEPTH
 70
  3020
  9
$PICKSTYLE
 70
     1
  9
$CMLSTYLE
  2
STANDARD
  9
$CMLJUST
 70
     0
  9
$CMLSCALE
 40
20.0
  9
$PROXYGRAPHICS
 70
     1
  9
$MEASUREMENT
 70
     1
  0
ENDSEC
  0
SECTION
  2
CLASSES
  0
CLASS
  1
ACDBDICTIONARYWDFLT
  2
AcDbDictionaryWithDefault
  3
AutoCAD 2000
 90
        0
280
     0
281
     0
  0
CLASS
  1
ACDBPLACEHOLDER
  2
AcDbPlaceHolder
  3
AutoCAD 2000
 90
        0
280
     0
281
     0
  0
CLASS
  1
LAYOUT
  2
AcDbLayout
  3
AutoCAD 2000
 90
        0
280
     0
281
     0
  0
CLASS
  1
DICTIONARYVAR
  2
AcDbDictionaryVar
  3
AutoCAD 2000
 90
        0
280
     0
281
     0
  0
CLASS
  1
LONG_TRANSACTION
  2
AcDbLongTransaction
  3
AutoCAD 2000
 90
        0
280
     0
281
     0
  0
CLASS
  1
LWPOLYLINE
  2
AcDbPolyline
  3
AutoCAD 2000
 90
        0
280
     0
281
     1
  0
CLASS
  1
HATCH
  2
AcDbHatch
  3
AutoCAD 2000
 90
        0
280
     0
281
     1
  0
CLASS
  1
XRECORD
  2
AcDbXrecord
  3
AutoCAD 2000
 90
        0
280
     0
281
     0
  0
CLASS
  1
LONG_TRANSACTION
  2
AcDbLongTransaction
  3
AutoCAD 2000
 90
        0
280
     0
281
     0
  0
CLASS
  1
LWPOLYLINE
  2
AcDbPolyline
  3
AutoCAD 2000
 90
        0
280
     0
281
     1
  0
CLASS
  1
HATCH
  2
AcDbHatch
  3
AutoCAD 2000
 90
        0
280
     0
281
     1
  0
CLASS
  1
XRECORD
  2
AcDbXrecord
  3
AutoCAD 2000
 90
        0
280
     0
281
     0
  0
ENDSEC
  0
SECTION
  2
TABLES
  0
TABLE
  2
VPORT
  5
8
330
0
100
AcDbSymbolTable
 70
     2
  0
VPORT
  5
328
330
8
100
AcDbSymbolTableRecord
100
AcDbViewportTableRecord
  2
*ACTIVE
 70
     0
 10
0.0
 20
0.0
 11
1.0
 21
1.0
 12
425.1180270154262
 22
33.05252161378428
 13
0.0
 23
0.0
 14
10.0
 24
10.0
 15
10.0
 25
10.0
 16
0.0
 26
0.0
 36
1.0
 17
0.0
 27
0.0
 37
0.0
 40
563.8192162408166
 41
1.758812615955473
 42
50.0
 43
0.0
 44
0.0
 50
0.0
 51
0.0
 71
     0
 72
   300
 73
     1
 74
     1
 75
     0
 76
     0
 77
     0
 78
     0
  0
ENDTAB
  0
TABLE
  2
LTYPE
  5
5
330
0
100
AcDbSymbolTable
 70
     1
  0
LTYPE
  5
14
330
5
100
AcDbSymbolTableRecord
100
AcDbLinetypeTableRecord
  2
BYBLOCK
 70
     0
  3

 72
    65
 73
     0
 40
0.0
  0
LTYPE
  5
15
330
5
100
AcDbSymbolTableRecord
100
AcDbLinetypeTableRecord
  2
BYLAYER
 70
     0
  3

 72
    65
 73
     0
 40
0.0
  0
LTYPE
  5
16
330
5
100
AcDbSymbolTableRecord
100
AcDbLinetypeTableRecord
  2
CONTINUOUS
 70
     0
  3
Solid line
 72
    65
 73
     0
 40
0.0
  0
ENDTAB
  0
TABLE
  2
LAYER
  5
2
330
0
100
AcDbSymbolTable
 70
     1
  0
LAYER
  5
10
330
2
100
AcDbSymbolTableRecord
100
AcDbLayerTableRecord
  2
0
 70
     0
 62
     7
  6
CONTINUOUS
  0
ENDTAB
  0
TABLE
  2
STYLE
  5
3
330
0
100
AcDbSymbolTable
 70
     1
  0
STYLE
  5
11
330
3
100
AcDbSymbolTableRecord
100
AcDbTextStyleTableRecord
  2
STANDARD
 70
     0
 40
0.0
 41
1.0
 50
0.0
 71
     0
 42
2.5
  3
txt
  4

  0
ENDTAB
  0
TABLE
  2
VIEW
  5
6
330
0
100
AcDbSymbolTable
 70
     0
  0
ENDTAB
  0
TABLE
  2
UCS
  5
7
330
0
100
AcDbSymbolTable
 70
     0
  0
ENDTAB
  0
TABLE
  2
APPID
  5
9
330
0
100
AcDbSymbolTable
 70
     2
  0
APPID
  5
12
330
9
100
AcDbSymbolTableRecord
100
AcDbRegAppTableRecord
  2
ACAD
 70
     0
  0
APPID
  5
245
330
9
100
AcDbSymbolTableRecord
100
AcDbRegAppTableRecord
  2
CONTENTBLOCKICON
 70
     0
  0
ENDTAB
  0
TABLE
  2
DIMSTYLE
  5
A
330
0
100
AcDbSymbolTable
 70
     1
  0
DIMSTYLE
105
27
330
A
100
AcDbSymbolTableRecord
100
AcDbDimStyleTableRecord
  2
ISO-25
 70
     0
  3

  4

  5

  6

  7

 40
1.0
 41
2.5
 42
0.625
 43
3.75
 44
1.25
 45
0.0
 46
0.0
 47
0.0
 48
0.0
140
2.5
141
2.5
142
0.0
143
0.03937007874016
144
1.0
145
0.0
146
1.0
147
0.625
 71
     0
 72
     0
 73
     0
 74
     0
 75
     0
 76
     0
 77
     1
 78
     8
170
     0
171
     3
172
     1
173
     0
174
     0
175
     0
176
     0
177
     0
178
     0
270
     2
271
     2
272
     2
273
     2
274
     3
340
11
275
     0
280
     0
281
     0
282
     0
283
     0
284
     8
285
     0
286
     0
287
     3
288
     0
  0
ENDTAB
  0
TABLE
  2
BLOCK_RECORD
  5
1
330
0
100
AcDbSymbolTable
 70
     3
  0
BLOCK_RECORD
  5
1F
102
{ACAD_XDICTIONARY
360
2E7
102
}
330
1
100
AcDbSymbolTableRecord
100
AcDbBlockTableRecord
  2
*MODEL_SPACE
  0
BLOCK_RECORD
  5
1B
102
{ACAD_XDICTIONARY
360
2E9
102
}
330
1
100
AcDbSymbolTableRecord
100
AcDbBlockTableRecord
  2
*PAPER_SPACE
  0
BLOCK_RECORD
  5
2B
330
1
100
AcDbSymbolTableRecord
100
AcDbBlockTableRecord
  2
MINIORB
1001
ACAD
1000
DesignCenter Data
1002
{
1070
     1
1070
     4
1002
}
  0
BLOCK_RECORD
  5
246
330
1
100
AcDbSymbolTableRecord
100
AcDbBlockTableRecord
  2
AC$4E
  0
ENDTAB
  0
ENDSEC
  0
SECTION
  2
BLOCKS
  0
BLOCK
  5
20
330
1F
100
AcDbEntity
  8
0
100
AcDbBlockBegin
  2
*MODEL_SPACE
 70
     0
 10
0.0
 20
0.0
 30
0.0
  3
*MODEL_SPACE
  1

  0
ENDBLK
  5
21
330
1F
100
AcDbEntity
  8
0
100
AcDbBlockEnd
  0
BLOCK
  5
1C
330
1B
100
AcDbEntity
 67
     1
  8
0
100
AcDbBlockBegin
  2
*PAPER_SPACE
 70
     0
 10
0.0
 20
0.0
 30
0.0
  3
*PAPER_SPACE
  1

  0
ENDBLK
  5
1D
330
1B
100
AcDbEntity
 67
     1
  8
0
100
AcDbBlockEnd
  0
BLOCK
  5
AF
330
2B
100
AcDbEntity
  8
0
100
AcDbBlockBegin
  2
MINIORB
 70
     0
 10
0.0
 20
0.0
 30
0.0
  3
MINIORB
  1

  0
LINE
  5
2C
330
2B
100
AcDbEntity
  8
0
100
AcDbLine
 10
4.91179514829739
 20
4.167827807945552
 30
0.0
 11
7.90070900575236
 21
1.832168770372673
 31
0.0
  0
ARC
  5
2D
330
2B
100
AcDbEntity
  8
0
100
AcDbCircle
 10
12.81249983522191
 20
7.500000000000001
 30
0.0
 40
7.499999999999999
100
AcDbArc
 50
229.0875193979003
 51
310.9124829750273
  0
LINE
  5
2E
330
2B
100
AcDbEntity
  8
0
100
AcDbLine
 10
17.72429089942695
 20
1.83216897379646
 30
0.0
 11
20.7132086368503
 21
4.167831104603341
 31
0.0
  0
ARC
  5
2F
330
2B
100
AcDbEntity
  8
0
100
AcDbCircle
 10
25.62499961058797
 20
-1.499999999999997
 30
0.0
 40
7.5
100
AcDbArc
 50
49.08750683595191
 51
130.9124820604979
  0
LINE
  5
30
330
2B
100
AcDbEntity
  8
0
100
AcDbLine
 10
33.52564533067293
 20
1.83221810404289
 30
0.0
 11
30.53679168271444
 21
4.167830152730021
 31
0.0
  0
LINE
  5
31
330
2B
100
AcDbEntity
  8
0
100
AcDbLine
 10
-4.911787608990104
 20
4.167833699467371
 30
0.0
 11
-8.50011514493547
 21
1.363768397217796
 31
0.0
  0
ARC
  5
32
330
2B
100
AcDbEntity
  8
0
100
AcDbCircle
 10
0.0000003704713514
 20
-1.499999999999997
 30
0.0
 40
7.5
100
AcDbArc
 50
49.08747948417989
 51
130.9124517915382
  0
LINE
  5
33
330
2B
100
AcDbEntity
  8
0
100
AcDbLine
 10
59.15058165564099
 20
1.83221810404289
 30
0.0
 11
56.1617280076825
 21
4.167830152730021
 31
0.0
  0
ARC
  5
34
330
2B
100
AcDbEntity
  8
0
100
AcDbCircle
 10
51.24993593555604
 20
-1.499999999999997
 30
0.0
 40
7.5
100
AcDbArc
 50
49.08750683595191
 51
130.9124820604979
  0
LINE
  5
35
330
2B
100
AcDbEntity
  8
0
100
AcDbLine
 10
43.349227224395
 20
1.83216897379646
 30
0.0
 11
46.33814496181836
 21
4.167831104603341
 31
0.0
  0
ARC
  5
36
330
2B
100
AcDbEntity
  8
0
100
AcDbCircle
 10
38.43743616018997
 20
7.500000000000001
 30
0.0
 40
7.499999999999999
100
AcDbArc
 50
229.0875193979003
 51
310.9124829750273
  0
LINE
  5
37
330
2B
100
AcDbEntity
  8
0
100
AcDbLine
 10
84.77551798060904
 20
1.83221810404289
 30
0.0
 11
81.78666433265055
 21
4.167830152730021
 31
0.0
  0
ARC
  5
38
330
2B
100
AcDbEntity
  8
0
100
AcDbCircle
 10
76.87487226052408
 20
-1.499999999999997
 30
0.0
 40
7.5
100
AcDbArc
 50
49.08750683595191
 51
130.9124820604979
  0
LINE
  5
39
330
2B
100
AcDbEntity
  8
0
100
AcDbLine
 10
68.97416354936307
 20
1.83216897379646
 30
0.0
 11
71.96308128678642
 21
4.167831104603341
 31
0.0
  0
ARC
  5
3A
330
2B
100
AcDbEntity
  8
0
100
AcDbCircle
 10
64.06237248515802
 20
7.500000000000001
 30
0.0
 40
7.499999999999999
100
AcDbArc
 50
229.0875193979003
 51
310.9124829750273
  0
LINE
  5
3B
330
2B
100
AcDbEntity
  8
0
100
AcDbLine
 10
110.4004543055771
 20
1.83221810404289
 30
0.0
 11
107.4116006576186
 21
4.167830152730021
 31
0.0
  0
ARC
  5
3C
330
2B
100
AcDbEntity
  8
0
100
AcDbCircle
 10
102.4998085854921
 20
-1.499999999999997
 30
0.0
 40
7.5
100
AcDbArc
 50
49.08750683595191
 51
130.9124820604979
  0
LINE
  5
3D
330
2B
100
AcDbEntity
  8
0
100
AcDbLine
 10
94.59909987433112
 20
1.83216897379646
 30
0.0
 11
97.58801761175448
 21
4.167831104603341
 31
0.0
  0
ARC
  5
3E
330
2B
100
AcDbEntity
  8
0
100
AcDbCircle
 10
89.68730881012609
 20
7.500000000000001
 30
0.0
 40
7.499999999999999
100
AcDbArc
 50
229.0875193979003
 51
310.9124829750273
  0
LINE
  5
3F
330
2B
100
AcDbEntity
  8
0
100
AcDbLine
 10
136.0253906305451
 20
1.83221810404289
 30
0.0
 11
133.0365369825866
 21
4.167830152730021
 31
0.0
  0
ARC
  5
40
330
2B
100
AcDbEntity
  8
0
100
AcDbCircle
 10
128.1247449104602
 20
-1.499999999999997
 30
0.0
 40
7.5
100
AcDbArc
 50
49.08750683595191
 51
130.9124820604979
  0
LINE
  5
41
330
2B
100
AcDbEntity
  8
0
100
AcDbLine
 10
120.2240361992991
 20
1.83216897379646
 30
0.0
 11
123.2129539367225
 21
4.167831104603341
 31
0.0
  0
ARC
  5
42
330
2B
100
AcDbEntity
  8
0
100
AcDbCircle
 10
115.3122451350941
 20
7.500000000000001
 30
0.0
 40
7.499999999999999
100
AcDbArc
 50
229.0875193979003
 51
310.9124829750273
  0
LINE
  5
43
330
2B
100
AcDbEntity
  8
0
100
AcDbLine
 10
161.6503269555131
 20
1.83221810404289
 30
0.0
 11
158.6614733075547
 21
4.167830152730021
 31
0.0
  0
ARC
  5
44
330
2B
100
AcDbEntity
  8
0
100
AcDbCircle
 10
153.7496812354282
 20
-1.499999999999997
 30
0.0
 40
7.5
100
AcDbArc
 50
49.08750683595191
 51
130.9124820604979
  0
LINE
  5
45
330
2B
100
AcDbEntity
  8
0
100
AcDbLine
 10
145.8489725242672
 20
1.83216897379646
 30
0.0
 11
148.8378902616906
 21
4.167831104603341
 31
0.0
  0
ARC
  5
46
330
2B
100
AcDbEntity
  8
0
100
AcDbCircle
 10
140.9371814600621
 20
7.500000000000001
 30
0.0
 40
7.499999999999999
100
AcDbArc
 50
229.0875193979003
 51
310.9124829750273
  0
LINE
  5
47
330
2B
100
AcDbEntity
  8
0
100
AcDbLine
 10
187.2752632804813
 20
1.83221810404289
 30
0.0
 11
184.2864096325227
 21
4.167830152730021
 31
0.0
  0
ARC
  5
48
330
2B
100
AcDbEntity
  8
0
100
AcDbCircle
 10
179.3746175603962
 20
-1.499999999999997
 30
0.0
 40
7.5
100
AcDbArc
 50
49.08750683595191
 51
130.9124820604979
  0
LINE
  5
49
330
2B
100
AcDbEntity
  8
0
100
AcDbLine
 10
171.4739088492352
 20
1.83216897379646
 30
0.0
 11
174.4628265866586
 21
4.167831104603341
 31
0.0
  0
ARC
  5
4A
330
2B
100
AcDbEntity
  8
0
100
AcDbCircle
 10
166.5621177850302
 20
7.500000000000001
 30
0.0
 40
7.499999999999999
100
AcDbArc
 50
229.0875193979003
 51
310.9124829750273
  0
LINE
  5
4B
330
2B
100
AcDbEntity
  8
0
100
AcDbLine
 10
212.9001996054493
 20
1.83221810404289
 30
0.0
 11
209.9113459574908
 21
4.167830152730021
 31
0.0
  0
ARC
  5
4C
330
2B
100
AcDbEntity
  8
0
100
AcDbCircle
 10
204.9995538853643
 20
-1.499999999999997
 30
0.0
 40
7.5
100
AcDbArc
 50
49.08750683595191
 51
130.9124820604979
  0
LINE
  5
4D
330
2B
100
AcDbEntity
  8
0
100
AcDbLine
 10
197.0988451742033
 20
1.83216897379646
 30
0.0
 11
200.0877629116267
 21
4.167831104603341
 31
0.0
  0
ARC
  5
4E
330
2B
100
AcDbEntity
  8
0
100
AcDbCircle
 10
192.1870541099983
 20
7.500000000000001
 30
0.0
 40
7.499999999999999
100
AcDbArc
 50
229.0875193979003
 51
310.9124829750273
  0
LINE
  5
4F
330
2B
100
AcDbEntity
  8
0
100
AcDbLine
 10
238.5251359304173
 20
1.83221810404289
 30
0.0
 11
235.5362822824588
 21
4.167830152730021
 31
0.0
  0
ARC
  5
50
330
2B
100
AcDbEntity
  8
0
100
AcDbCircle
 10
230.6244902103324
 20
-1.499999999999997
 30
0.0
 40
7.5
100
AcDbArc
 50
49.08750683595191
 51
130.9124820604979
  0
LINE
  5
51
330
2B
100
AcDbEntity
  8
0
100
AcDbLine
 10
222.7237814991714
 20
1.83216897379646
 30
0.0
 11
225.7126992365947
 21
4.167831104603341
 31
0.0
  0
ARC
  5
52
330
2B
100
AcDbEntity
  8
0
100
AcDbCircle
 10
217.8119904349663
 20
7.500000000000001
 30
0.0
 40
7.499999999999999
100
AcDbArc
 50
229.0875193979003
 51
310.9124829750273
  0
LINE
  5
53
330
2B
100
AcDbEntity
  8
0
100
AcDbLine
 10
264.1500722553854
 20
1.83221810404289
 30
0.0
 11
261.1612186074269
 21
4.167830152730021
 31
0.0
  0
ARC
  5
54
330
2B
100
AcDbEntity
  8
0
100
AcDbCircle
 10
256.2494265353004
 20
-1.499999999999997
 30
0.0
 40
7.5
100
AcDbArc
 50
49.08750683595191
 51
130.9124820604979
  0
LINE
  5
55
330
2B
100
AcDbEntity
  8
0
100
AcDbLine
 10
248.3487178241394
 20
1.83216897379646
 30
0.0
 11
251.3376355615628
 21
4.167831104603341
 31
0.0
  0
ARC
  5
56
330
2B
100
AcDbEntity
  8
0
100
AcDbCircle
 10
243.4369267599344
 20
7.500000000000001
 30
0.0
 40
7.499999999999999
100
AcDbArc
 50
229.0875193979003
 51
310.9124829750273
  0
LINE
  5
57
330
2B
100
AcDbEntity
  8
0
100
AcDbLine
 10
289.7750085803535
 20
1.83221810404289
 30
0.0
 11
286.786154932395
 21
4.167830152730021
 31
0.0
  0
ARC
  5
58
330
2B
100
AcDbEntity
  8
0
100
AcDbCircle
 10
281.8743628602685
 20
-1.499999999999997
 30
0.0
 40
7.5
100
AcDbArc
 50
49.08750683595191
 51
130.9124820604979
  0
LINE
  5
59
330
2B
100
AcDbEntity
  8
0
100
AcDbLine
 10
273.9736541491075
 20
1.83216897379646
 30
0.0
 11
276.9625718865309
 21
4.167831104603341
 31
0.0
  0
ARC
  5
5A
330
2B
100
AcDbEntity
  8
0
100
AcDbCircle
 10
269.0618630849024
 20
7.500000000000001
 30
0.0
 40
7.499999999999999
100
AcDbArc
 50
229.0875193979003
 51
310.9124829750273
  0
LINE
  5
5B
330
2B
100
AcDbEntity
  8
0
100
AcDbLine
 10
315.3999449053216
 20
1.83221810404289
 30
0.0
 11
312.4110912573631
 21
4.167830152730021
 31
0.0
  0
ARC
  5
5C
330
2B
100
AcDbEntity
  8
0
100
AcDbCircle
 10
307.4992991852366
 20
-1.499999999999997
 30
0.0
 40
7.5
100
AcDbArc
 50
49.08750683595191
 51
130.9124820604979
  0
LINE
  5
5D
330
2B
100
AcDbEntity
  8
0
100
AcDbLine
 10
299.5985904740756
 20
1.83216897379646
 30
0.0
 11
302.5875082114989
 21
4.167831104603341
 31
0.0
  0
ARC
  5
5E
330
2B
100
AcDbEntity
  8
0
100
AcDbCircle
 10
294.6867994098705
 20
7.500000000000001
 30
0.0
 40
7.499999999999999
100
AcDbArc
 50
229.0875193979003
 51
310.9124829750273
  0
LINE
  5
5F
330
2B
100
AcDbEntity
  8
0
100
AcDbLine
 10
341.0248812302896
 20
1.83221810404289
 30
0.0
 11
338.0360275823311
 21
4.167830152730021
 31
0.0
  0
ARC
  5
60
330
2B
100
AcDbEntity
  8
0
100
AcDbCircle
 10
333.1242355102046
 20
-1.499999999999997
 30
0.0
 40
7.5
100
AcDbArc
 50
49.08750683595191
 51
130.9124820604979
  0
LINE
  5
61
330
2B
100
AcDbEntity
  8
0
100
AcDbLine
 10
325.2235267990436
 20
1.83216897379646
 30
0.0
 11
328.212444536467
 21
4.167831104603341
 31
0.0
  0
ARC
  5
62
330
2B
100
AcDbEntity
  8
0
100
AcDbCircle
 10
320.3117357348385
 20
7.500000000000001
 30
0.0
 40
7.499999999999999
100
AcDbArc
 50
229.0875193979003
 51
310.9124829750273
  0
LINE
  5
63
330
2B
100
AcDbEntity
  8
0
100
AcDbLine
 10
366.6498175552577
 20
1.83221810404289
 30
0.0
 11
363.6609639072992
 21
4.167830152730021
 31
0.0
  0
ARC
  5
64
330
2B
100
AcDbEntity
  8
0
100
AcDbCircle
 10
358.7491718351727
 20
-1.499999999999997
 30
0.0
 40
7.5
100
AcDbArc
 50
49.08750683595191
 51
130.9124820604979
  0
LINE
  5
65
330
2B
100
AcDbEntity
  8
0
100
AcDbLine
 10
350.8484631240116
 20
1.83216897379646
 30
0.0
 11
353.837380861435
 21
4.167831104603341
 31
0.0
  0
ARC
  5
66
330
2B
100
AcDbEntity
  8
0
100
AcDbCircle
 10
345.9366720598066
 20
7.500000000000001
 30
0.0
 40
7.499999999999999
100
AcDbArc
 50
229.0875193979003
 51
310.9124829750273
  0
LINE
  5
67
330
2B
100
AcDbEntity
  8
0
100
AcDbLine
 10
392.2747538802257
 20
1.83221810404289
 30
0.0
 11
389.2859002322673
 21
4.167830152730021
 31
0.0
  0
ARC
  5
68
330
2B
100
AcDbEntity
  8
0
100
AcDbCircle
 10
384.3741081601407
 20
-1.499999999999997
 30
0.0
 40
7.5
100
AcDbArc
 50
49.08750683595191
 51
130.9124820604979
  0
LINE
  5
69
330
2B
100
AcDbEntity
  8
0
100
AcDbLine
 10
376.4733994489797
 20
1.83216897379646
 30
0.0
 11
379.4623171864031
 21
4.167831104603341
 31
0.0
  0
ARC
  5
6A
330
2B
100
AcDbEntity
  8
0
100
AcDbCircle
 10
371.5616083847747
 20
7.500000000000001
 30
0.0
 40
7.499999999999999
100
AcDbArc
 50
229.0875193979003
 51
310.9124829750273
  0
LINE
  5
6B
330
2B
100
AcDbEntity
  8
0
100
AcDbLine
 10
417.8996902051937
 20
1.83221810404289
 30
0.0
 11
414.9108365572352
 21
4.167830152730021
 31
0.0
  0
ARC
  5
6C
330
2B
100
AcDbEntity
  8
0
100
AcDbCircle
 10
409.9990444851088
 20
-1.499999999999997
 30
0.0
 40
7.5
100
AcDbArc
 50
49.08750683595191
 51
130.9124820604979
  0
LINE
  5
6D
330
2B
100
AcDbEntity
  8
0
100
AcDbLine
 10
402.0983357739478
 20
1.83216897379646
 30
0.0
 11
405.0872535113711
 21
4.167831104603341
 31
0.0
  0
ARC
  5
6E
330
2B
100
AcDbEntity
  8
0
100
AcDbCircle
 10
397.1865447097427
 20
7.500000000000001
 30
0.0
 40
7.499999999999999
100
AcDbArc
 50
229.0875193979003
 51
310.9124829750273
  0
LINE
  5
6F
330
2B
100
AcDbEntity
  8
0
100
AcDbLine
 10
443.5246265301619
 20
1.83221810404289
 30
0.0
 11
440.5357728822034
 21
4.167830152730021
 31
0.0
  0
ARC
  5
70
330
2B
100
AcDbEntity
  8
0
100
AcDbCircle
 10
435.6239808100768
 20
-1.499999999999997
 30
0.0
 40
7.5
100
AcDbArc
 50
49.08750683595191
 51
130.9124820604979
  0
LINE
  5
71
330
2B
100
AcDbEntity
  8
0
100
AcDbLine
 10
427.7232720989158
 20
1.83216897379646
 30
0.0
 11
430.7121898363392
 21
4.167831104603341
 31
0.0
  0
ARC
  5
72
330
2B
100
AcDbEntity
  8
0
100
AcDbCircle
 10
422.8114810347108
 20
7.500000000000001
 30
0.0
 40
7.499999999999999
100
AcDbArc
 50
229.0875193979003
 51
310.9124829750273
  0
LINE
  5
73
330
2B
100
AcDbEntity
  8
0
100
AcDbLine
 10
469.1495628551299
 20
1.83221810404289
 30
0.0
 11
466.1607092071714
 21
4.167830152730021
 31
0.0
  0
ARC
  5
74
330
2B
100
AcDbEntity
  8
0
100
AcDbCircle
 10
461.2489171350449
 20
-1.499999999999997
 30
0.0
 40
7.5
100
AcDbArc
 50
49.08750683595191
 51
130.9124820604979
  0
LINE
  5
75
330
2B
100
AcDbEntity
  8
0
100
AcDbLine
 10
453.3482084238839
 20
1.83216897379646
 30
0.0
 11
456.3371261613073
 21
4.167831104603341
 31
0.0
  0
ARC
  5
76
330
2B
100
AcDbEntity
  8
0
100
AcDbCircle
 10
448.4364173596788
 20
7.500000000000001
 30
0.0
 40
7.499999999999999
100
AcDbArc
 50
229.0875193979003
 51
310.9124829750273
  0
LINE
  5
77
330
2B
100
AcDbEntity
  8
0
100
AcDbLine
 10
494.774499180098
 20
1.83221810404289
 30
0.0
 11
491.7856455321395
 21
4.167830152730021
 31
0.0
  0
ARC
  5
78
330
2B
100
AcDbEntity
  8
0
100
AcDbCircle
 10
486.8738534600129
 20
-1.499999999999997
 30
0.0
 40
7.5
100
AcDbArc
 50
49.08750683595191
 51
130.9124820604979
  0
LINE
  5
79
330
2B
100
AcDbEntity
  8
0
100
AcDbLine
 10
478.9731447488519
 20
1.83216897379646
 30
0.0
 11
481.9620624862753
 21
4.167831104603341
 31
0.0
  0
ARC
  5
7A
330
2B
100
AcDbEntity
  8
0
100
AcDbCircle
 10
474.0613536846469
 20
7.500000000000001
 30
0.0
 40
7.499999999999999
100
AcDbArc
 50
229.0875193979003
 51
310.9124829750273
  0
LINE
  5
7B
330
2B
100
AcDbEntity
  8
0
100
AcDbLine
 10
520.3994355050659
 20
1.83221810404289
 30
0.0
 11
517.4105818571075
 21
4.167830152730021
 31
0.0
  0
ARC
  5
7C
330
2B
100
AcDbEntity
  8
0
100
AcDbCircle
 10
512.4987897849811
 20
-1.499999999999997
 30
0.0
 40
7.5
100
AcDbArc
 50
49.08750683595191
 51
130.9124820604979
  0
LINE
  5
7D
330
2B
100
AcDbEntity
  8
0
100
AcDbLine
 10
504.59808107382
 20
1.83216897379646
 30
0.0
 11
507.5869988112434
 21
4.167831104603341
 31
0.0
  0
ARC
  5
7E
330
2B
100
AcDbEntity
  8
0
100
AcDbCircle
 10
499.6862900096149
 20
7.500000000000001
 30
0.0
 40
7.499999999999999
100
AcDbArc
 50
229.0875193979003
 51
310.9124829750273
  0
LINE
  5
7F
330
2B
100
AcDbEntity
  8
0
100
AcDbLine
 10
546.024371830034
 20
1.83221810404289
 30
0.0
 11
543.0355181820756
 21
4.167830152730021
 31
0.0
  0
ARC
  5
80
330
2B
100
AcDbEntity
  8
0
100
AcDbCircle
 10
538.1237261099491
 20
-1.499999999999997
 30
0.0
 40
7.5
100
AcDbArc
 50
49.08750683595191
 51
130.9124820604979
  0
LINE
  5
81
330
2B
100
AcDbEntity
  8
0
100
AcDbLine
 10
530.223017398788
 20
1.83216897379646
 30
0.0
 11
533.2119351362114
 21
4.167831104603341
 31
0.0
  0
ARC
  5
82
330
2B
100
AcDbEntity
  8
0
100
AcDbCircle
 10
525.3112263345831
 20
7.500000000000001
 30
0.0
 40
7.499999999999999
100
AcDbArc
 50
229.0875193979003
 51
310.9124829750273
  0
LINE
  5
83
330
2B
100
AcDbEntity
  8
0
100
AcDbLine
 10
571.6493081550021
 20
1.83221810404289
 30
0.0
 11
568.6604545070436
 21
4.167830152730021
 31
0.0
  0
ARC
  5
84
330
2B
100
AcDbEntity
  8
0
100
AcDbCircle
 10
563.7486624349172
 20
-1.499999999999997
 30
0.0
 40
7.5
100
AcDbArc
 50
49.08750683595191
 51
130.9124820604979
  0
LINE
  5
85
330
2B
100
AcDbEntity
  8
0
100
AcDbLine
 10
555.8479537237562
 20
1.83216897379646
 30
0.0
 11
558.8368714611795
 21
4.167831104603341
 31
0.0
  0
ARC
  5
86
330
2B
100
AcDbEntity
  8
0
100
AcDbCircle
 10
550.9361626595512
 20
7.500000000000001
 30
0.0
 40
7.499999999999999
100
AcDbArc
 50
229.0875193979003
 51
310.9124829750273
  0
LINE
  5
87
330
2B
100
AcDbEntity
  8
0
100
AcDbLine
 10
597.2742444799702
 20
1.83221810404289
 30
0.0
 11
594.2853908320118
 21
4.167830152730021
 31
0.0
  0
ARC
  5
88
330
2B
100
AcDbEntity
  8
0
100
AcDbCircle
 10
589.3735987598853
 20
-1.499999999999997
 30
0.0
 40
7.5
100
AcDbArc
 50
49.08750683595191
 51
130.9124820604979
  0
LINE
  5
89
330
2B
100
AcDbEntity
  8
0
100
AcDbLine
 10
581.4728900487242
 20
1.83216897379646
 30
0.0
 11
584.4618077861476
 21
4.167831104603341
 31
0.0
  0
ARC
  5
8A
330
2B
100
AcDbEntity
  8
0
100
AcDbCircle
 10
576.5610989845193
 20
7.500000000000001
 30
0.0
 40
7.499999999999999
100
AcDbArc
 50
229.0875193979003
 51
310.9124829750273
  0
LINE
  5
8B
330
2B
100
AcDbEntity
  8
0
100
AcDbLine
 10
622.8991808049381
 20
1.83221810404289
 30
0.0
 11
619.9103271569797
 21
4.167830152730021
 31
0.0
  0
ARC
  5
8C
330
2B
100
AcDbEntity
  8
0
100
AcDbCircle
 10
614.9985350848533
 20
-1.499999999999997
 30
0.0
 40
7.5
100
AcDbArc
 50
49.08750683595191
 51
130.9124820604979
  0
LINE
  5
8D
330
2B
100
AcDbEntity
  8
0
100
AcDbLine
 10
607.0978263736922
 20
1.83216897379646
 30
0.0
 11
610.0867441111155
 21
4.167831104603341
 31
0.0
  0
ARC
  5
8E
330
2B
100
AcDbEntity
  8
0
100
AcDbCircle
 10
602.1860353094872
 20
7.500000000000001
 30
0.0
 40
7.499999999999999
100
AcDbArc
 50
229.0875193979003
 51
310.9124829750273
  0
LINE
  5
8F
330
2B
100
AcDbEntity
  8
0
100
AcDbLine
 10
648.5241171299062
 20
1.83221810404289
 30
0.0
 11
645.5352634819478
 21
4.167830152730021
 31
0.0
  0
ARC
  5
90
330
2B
100
AcDbEntity
  8
0
100
AcDbCircle
 10
640.6234714098213
 20
-1.499999999999997
 30
0.0
 40
7.5
100
AcDbArc
 50
49.08750683595191
 51
130.9124820604979
  0
LINE
  5
91
330
2B
100
AcDbEntity
  8
0
100
AcDbLine
 10
632.7227626986602
 20
1.83216897379646
 30
0.0
 11
635.7116804360836
 21
4.167831104603341
 31
0.0
  0
ARC
  5
92
330
2B
100
AcDbEntity
  8
0
100
AcDbCircle
 10
627.8109716344553
 20
7.500000000000001
 30
0.0
 40
7.499999999999999
100
AcDbArc
 50
229.0875193979003
 51
310.9124829750273
  0
LINE
  5
93
330
2B
100
AcDbEntity
  8
0
100
AcDbLine
 10
674.1490534548743
 20
1.83221810404289
 30
0.0
 11
671.1601998069158
 21
4.167830152730021
 31
0.0
  0
ARC
  5
94
330
2B
100
AcDbEntity
  8
0
100
AcDbCircle
 10
666.2484077347894
 20
-1.499999999999997
 30
0.0
 40
7.5
100
AcDbArc
 50
49.08750683595191
 51
130.9124820604979
  0
LINE
  5
95
330
2B
100
AcDbEntity
  8
0
100
AcDbLine
 10
658.3476990236284
 20
1.83216897379646
 30
0.0
 11
661.3366167610516
 21
4.167831104603341
 31
0.0
  0
ARC
  5
96
330
2B
100
AcDbEntity
  8
0
100
AcDbCircle
 10
653.4359079594233
 20
7.500000000000001
 30
0.0
 40
7.499999999999999
100
AcDbArc
 50
229.0875193979003
 51
310.9124829750273
  0
LINE
  5
97
330
2B
100
AcDbEntity
  8
0
100
AcDbLine
 10
699.7739897798424
 20
1.83221810404289
 30
0.0
 11
696.785136131884
 21
4.167830152730021
 31
0.0
  0
ARC
  5
98
330
2B
100
AcDbEntity
  8
0
100
AcDbCircle
 10
691.8733440597575
 20
-1.499999999999997
 30
0.0
 40
7.5
100
AcDbArc
 50
49.08750683595191
 51
130.9124820604979
  0
LINE
  5
99
330
2B
100
AcDbEntity
  8
0
100
AcDbLine
 10
683.9726353485964
 20
1.83216897379646
 30
0.0
 11
686.9615530860198
 21
4.167831104603341
 31
0.0
  0
ARC
  5
9A
330
2B
100
AcDbEntity
  8
0
100
AcDbCircle
 10
679.0608442843915
 20
7.500000000000001
 30
0.0
 40
7.499999999999999
100
AcDbArc
 50
229.0875193979003
 51
310.9124829750273
  0
LINE
  5
9B
330
2B
100
AcDbEntity
  8
0
100
AcDbLine
 10
725.3989261048104
 20
1.83221810404289
 30
0.0
 11
722.410072456852
 21
4.167830152730021
 31
0.0
  0
ARC
  5
9C
330
2B
100
AcDbEntity
  8
0
100
AcDbCircle
 10
717.4982803847256
 20
-1.499999999999997
 30
0.0
 40
7.5
100
AcDbArc
 50
49.08750683595191
 51
130.9124820604979
  0
LINE
  5
9D
330
2B
100
AcDbEntity
  8
0
100
AcDbLine
 10
709.5975716735645
 20
1.83216897379646
 30
0.0
 11
712.5864894109878
 21
4.167831104603341
 31
0.0
  0
ARC
  5
9E
330
2B
100
AcDbEntity
  8
0
100
AcDbCircle
 10
704.6857806093595
 20
7.500000000000001
 30
0.0
 40
7.499999999999999
100
AcDbArc
 50
229.0875193979003
 51
310.9124829750273
  0
LINE
  5
9F
330
2B
100
AcDbEntity
  8
0
100
AcDbLine
 10
751.0238624297785
 20
1.83221810404289
 30
0.0
 11
748.0350087818201
 21
4.167830152730021
 31
0.0
  0
ARC
  5
A0
330
2B
100
AcDbEntity
  8
0
100
AcDbCircle
 10
743.1232167096936
 20
-1.499999999999997
 30
0.0
 40
7.5
100
AcDbArc
 50
49.08750683595191
 51
130.9124820604979
  0
LINE
  5
A1
330
2B
100
AcDbEntity
  8
0
100
AcDbLine
 10
735.2225079985325
 20
1.83216897379646
 30
0.0
 11
738.2114257359559
 21
4.167831104603341
 31
0.0
  0
ARC
  5
A2
330
2B
100
AcDbEntity
  8
0
100
AcDbCircle
 10
730.3107169343276
 20
7.500000000000001
 30
0.0
 40
7.499999999999999
100
AcDbArc
 50
229.0875193979003
 51
310.9124829750273
  0
LINE
  5
A3
330
2B
100
AcDbEntity
  8
0
100
AcDbLine
 10
776.6487987547464
 20
1.83221810404289
 30
0.0
 11
773.659945106788
 21
4.167830152730021
 31
0.0
  0
ARC
  5
A4
330
2B
100
AcDbEntity
  8
0
100
AcDbCircle
 10
768.7481530346616
 20
-1.499999999999997
 30
0.0
 40
7.5
100
AcDbArc
 50
49.08750683595191
 51
130.9124820604979
  0
LINE
  5
A5
330
2B
100
AcDbEntity
  8
0
100
AcDbLine
 10
760.8474443235005
 20
1.83216897379646
 30
0.0
 11
763.8363620609238
 21
4.167831104603341
 31
0.0
  0
ARC
  5
A6
330
2B
100
AcDbEntity
  8
0
100
AcDbCircle
 10
755.9356532592955
 20
7.500000000000001
 30
0.0
 40
7.499999999999999
100
AcDbArc
 50
229.0875193979003
 51
310.9124829750273
  0
LINE
  5
A7
330
2B
100
AcDbEntity
  8
0
100
AcDbLine
 10
802.2737350797145
 20
1.83221810404289
 30
0.0
 11
799.2848814317562
 21
4.167830152730021
 31
0.0
  0
ARC
  5
A8
330
2B
100
AcDbEntity
  8
0
100
AcDbCircle
 10
794.3730893596296
 20
-1.499999999999997
 30
0.0
 40
7.5
100
AcDbArc
 50
49.08750683595191
 51
130.9124820604979
  0
LINE
  5
A9
330
2B
100
AcDbEntity
  8
0
100
AcDbLine
 10
786.4723806484686
 20
1.83216897379646
 30
0.0
 11
789.461298385892
 21
4.167831104603341
 31
0.0
  0
ARC
  5
AA
330
2B
100
AcDbEntity
  8
0
100
AcDbCircle
 10
781.5605895842637
 20
7.500000000000001
 30
0.0
 40
7.499999999999999
100
AcDbArc
 50
229.0875193979003
 51
310.9124829750273
  0
LINE
  5
AB
330
2B
100
AcDbEntity
  8
0
100
AcDbLine
 10
827.8986714046826
 20
1.83221810404289
 30
0.0
 11
824.9098177567242
 21
4.167830152730021
 31
0.0
  0
ARC
  5
AC
330
2B
100
AcDbEntity
  8
0
100
AcDbCircle
 10
819.9980256845977
 20
-1.499999999999997
 30
0.0
 40
7.5
100
AcDbArc
 50
49.08750683595191
 51
130.9124820604979
  0
LINE
  5
AD
330
2B
100
AcDbEntity
  8
0
100
AcDbLine
 10
812.0973169734366
 20
1.83216897379646
 30
0.0
 11
815.0862347108599
 21
4.167831104603341
 31
0.0
  0
ARC
  5
AE
330
2B
100
AcDbEntity
  8
0
100
AcDbCircle
 10
807.1855259092316
 20
7.500000000000001
 30
0.0
 40
7.499999999999999
100
AcDbArc
 50
229.0875193979003
 51
310.9124829750273
  0
ENDBLK
  5
B0
330
2B
100
AcDbEntity
  8
0
100
AcDbBlockEnd
  0
BLOCK
  5
24B
330
246
100
AcDbEntity
  8
0
 62
     1
100
AcDbBlockBegin
  2
AC$4E
 70
     0
 10
0.0
 20
0.0
 30
0.0
  3
AC$4E
  1

  0
LINE
  5
247
330
246
100
AcDbEntity
  8
0
100
AcDbLine
 10
98.89013040019973
 20
5.514565341934542
 30
0.0
 11
109.2615193524963
 21
0.0000000008339498
 31
0.0
  0
LINE
  5
248
330
246
100
AcDbEntity
  8
0
100
AcDbLine
 10
268.4160682258005
 20
5.514565341934542
 30
0.0
 11
278.7874571780971
 21
0.0000000008339498
 31
0.0
  0
LINE
  5
249
330
246
100
AcDbEntity
  8
0
100
AcDbLine
 10
437.9420060514014
 20
5.514565341934542
 30
0.0
 11
448.3133950036979
 21
0.0000000008339498
 31
0.0
  0
LWPOLYLINE
  5
24A
330
246
100
AcDbEntity
  8
0
100
AcDbPolyline
 90
      122
 70
     0
 43
0.0
 10
-256.1667929912013
 20
-0.9984898302832903
 10
-243.917517756602
 20
5.514565342970504
 42
-0.2493280028431842
 10
-240.1617452543149
 20
5.514565342970513
 10
-229.7903562708591
 20
0.0000000010371748
 42
0.2493280028431811
 10
-226.034583768572
 20
0.000000001037165
 10
-215.6631947537245
 20
5.514565342970504
 42
-0.2493280028431842
 10
-211.9074222514373
 20
5.514565342970513
 10
-201.5360333031254
 20
0.0000000043115009
 42
0.2493280031252676
 10
-197.7802607970864
 20
0.0000000023165967
 10
-187.4088718389745
 20
5.514565343221516
 42
-0.2493280028215596
 10
-183.653099336975
 20
5.514565343068596
 10
-173.2817103248466
 20
-0.0000000016170918
 42
0.2493280026145185
 10
-169.5259378256008
 20
0.0
 10
-159.1545488421451
 20
5.514565342970504
 42
-0.2493280028431842
 10
-155.398776339858
 20
5.514565342970513
 10
-145.0273873745264
 20
0.0000000010371748
 42
0.2493280028431811
 10
-141.2716148722392
 20
0.000000001037165
 10
-130.9002258706595
 20
5.514565342970504
 42
-0.2493280028431842
 10
-127.1444533683723
 20
5.514565342970513
 10
-116.773064421165
 20
0.0000000010371748
 42
0.2493280028431811
 10
-113.0172919188778
 20
0.000000001037165
 10
-102.6459028948415
 20
5.514565346751396
 42
-0.2493280025174549
 10
-98.89013039688672
 20
5.514565344447873
 10
-88.51874138813172
 20
0.0000000013269505
 42
0.2493280028681451
 10
-84.76296888551251
 20
0.0000000011503971
 10
-74.39157993072615
 20
5.514565340319263
 42
-0.2493280030715903
 10
-70.63580742540108
 20
5.514565341934542
 10
-60.2644184452584
 20
0.0000000010371748
 42
0.2493280028431811
 10
-56.50864594297122
 20
0.000000001037165
 10
-46.13725692812368
 20
5.514565342970504
 42
-0.2493280028431842
 10
-42.38148442583656
 20
5.514565342970513
 10
-32.0100954775246
 20
0.0000000043115009
 42
0.2493280031252676
 10
-28.25432297148563
 20
0.0000000023165967
 10
-17.88293401337369
 20
5.514565343221516
 42
-0.2493280028215596
 10
-14.12716151137419
 20
5.514565343068596
 10
-3.755772499245892
 20
-0.0000000016170918
 42
0.2493280026145185
 10
0.0
 20
0.0
 10
10.37138898345568
 20
5.514565342970504
 42
-0.2493280028431842
 10
14.12716148574281
 20
5.514565342970513
 10
24.49855045107432
 20
0.0000000010371748
 42
0.2493280028431811
 10
28.25432295336156
 20
0.000000001037165
 10
38.62571195494132
 20
5.514565342970504
 42
-0.2493280028431842
 10
42.38148445722845
 20
5.514565342970513
 10
52.75287340443577
 20
0.0000000010371748
 42
0.2493280028431811
 10
56.50864590672302
 20
0.000000001037165
 10
66.88003493075928
 20
5.514565346751396
 42
-0.2493280025174549
 10
70.63580742871408
 20
5.514565344447873
 10
81.00719643746913
 20
0.0000000013269505
 42
0.2493280028681451
 10
84.76296894008829
 20
0.0000000011503971
 10
95.13435789459959
 20
5.514565342970504
 42
-0.2493280028431842
 10
98.89013039688677
 20
5.514565342970513
 10
109.2615193803424
 20
0.0000000010371748
 42
0.2493280028431811
 10
113.0172918826295
 20
0.000000001037165
 10
123.3886808974771
 20
5.514565342970504
 42
-0.2493280028431842
 10
127.1444533997643
 20
5.514565342970513
 10
137.5158423480762
 20
0.0000000043115009
 42
0.2493280031252676
 10
141.2716148541152
 20
0.0000000023165967
 10
151.643003812227
 20
5.514565343221516
 42
-0.2493280028215596
 10
155.3987763142266
 20
5.514565343068596
 10
165.7701653263549
 20
-0.0000000016170918
 42
0.2493280026145185
 10
169.5259378256007
 20
0.0
 10
179.8973268090564
 20
5.514565342970504
 42
-0.2493280028431842
 10
183.6530993113436
 20
5.514565342970513
 10
194.0244882766751
 20
0.0000000010371748
 42
0.2493280028431811
 10
197.7802607789624
 20
0.000000001037165
 10
208.151649780542
 20
5.514565342970504
 42
-0.2493280028431842
 10
211.9074222828293
 20
5.514565342970513
 10
222.2788112300366
 20
0.0000000010371748
 42
0.2493280028431811
 10
226.0345837323238
 20
0.000000001037165
 10
236.40597275636
 20
5.514565346751396
 42
-0.2493280025174549
 10
240.1617452543149
 20
5.514565344447873
 10
250.5331342630698
 20
0.0000000013269505
 42
0.2493280028681451
 10
254.2889067656891
 20
0.0000000011503971
 10
264.6602957202004
 20
5.514565342970504
 42
-0.2493280028431842
 10
268.4160682224875
 20
5.514565342970513
 10
278.7874572059434
 20
0.0000000010371748
 42
0.2493280028431811
 10
282.5432297082304
 20
0.000000001037165
 10
292.9146187230779
 20
5.514565342970504
 42
-0.2493280028431842
 10
296.6703912253651
 20
5.514565342970513
 10
307.041780173677
 20
0.0000000043115009
 42
0.2493280031252676
 10
310.7975526797161
 20
0.0000000023165967
 10
321.1689416378278
 20
5.514565343221516
 42
-0.2493280028215596
 10
324.9247141398274
 20
5.514565343068596
 10
335.2961031519556
 20
-0.0000000016170918
 42
0.2493280026145185
 10
339.0518756512016
 20
0.0
 10
349.4232646346573
 20
5.514565342970504
 42
-0.2493280028431842
 10
353.1790371369444
 20
5.514565342970513
 10
363.5504261022761
 20
0.0000000010371748
 42
0.2493280028431811
 10
367.3061986045631
 20
0.000000001037165
 10
377.6775876061429
 20
5.514565342970504
 42
-0.2493280028431842
 10
381.4333601084301
 20
5.514565342970513
 10
391.8047490556375
 20
0.0000000010371748
 42
0.2493280028431811
 10
395.5605215579246
 20
0.000000001037165
 10
405.9319105819609
 20
5.514565346751396
 42
-0.2493280025174549
 10
409.6876830799158
 20
5.514565344447873
 10
420.0590720886707
 20
0.0000000013269505
 42
0.2493280028681451
 10
423.81484459129
 20
0.0000000011503971
 10
434.1862335458013
 20
5.514565342970504
 42
-0.2493280028431842
 10
437.9420060480883
 20
5.514565342970513
 10
448.3133950315441
 20
0.0000000010371748
 42
0.2493280028431811
 10
452.0691675338313
 20
0.000000001037165
 10
462.4405565486788
 20
5.514565342970504
 42
-0.2493280028431842
 10
466.1963290509659
 20
5.514565342970513
 10
476.5677179992779
 20
0.0000000043115009
 42
0.2493280031252676
 10
480.3234905053168
 20
0.0000000023165967
 10
490.6948794634287
 20
5.514565343221516
 42
-0.2493280028215596
 10
494.4506519654282
 20
5.514565343068596
 10
504.8220409775566
 20
-0.0000000016170918
 42
0.2493280026145185
 10
508.5778134768024
 20
0.0
 10
518.9492024602582
 20
5.514565342970504
 42
-0.2493280028431842
 10
522.7049749625453
 20
5.514565342970513
 10
533.0763639278768
 20
0.0000000010371748
 42
0.2493280028431811
 10
536.832136430164
 20
0.000000001037165
 10
547.2035254317439
 20
5.514565342970504
 42
-0.2493280028431842
 10
550.9592979340309
 20
5.514565342970513
 10
561.3306868812383
 20
0.0000000010371748
 42
0.2493280028431811
 10
565.0864593835255
 20
0.000000001037165
 10
575.4578484075617
 20
5.514565346751396
 42
-0.2493280025174549
 10
579.2136209055165
 20
5.514565344447873
 10
589.5850099142716
 20
0.0000000013269505
 42
0.2493280028681451
 10
593.3407824168908
 20
0.0000000011503971
 10
597.6352539840457
 20
2.283411042575949
  0
ENDBLK
  5
24C
330
246
100
AcDbEntity
  8
0
 62
     1
100
AcDbBlockEnd
  0
ENDSEC
  0
SECTION
  2
ENTITIES
  0
LINE
  5
254
330
1F
100
AcDbEntity
  8
0
100
AcDbLine
 10
0.0
 20
0.0
 30
0.0
 11
2.813099550194259
 21
2.439959544088466
 31
0.0
  0
ARC
  5
255
330
1F
100
AcDbEntity
  8
0
100
AcDbCircle
 10
7.435959685817826
 20
-2.673015807349302
 30
0.0
 40
6.892993020303134
100
AcDbArc
 50
47.88184376281267
 51
132.1180852959932
  0
LINE
  5
256
330
1F
100
AcDbEntity
  8
0
100
AcDbLine
 10
12.05882615210617
 20
2.439953820256008
 30
0.0
 11
14.87192205056482
 21
-0.00000271864063
 31
0.0
  0
ARC
  5
257
330
1F
100
AcDbEntity
  8
0
100
AcDbCircle
 10
19.49478483582133
 20
5.112970222071768
 30
0.0
 40
6.892993009119242
100
AcDbArc
 50
227.8818849282767
 51
312.1181175211966
  0
LINE
  5
258
330
1F
100
AcDbEntity
  8
0
100
AcDbLine
 10
24.11764783966446
 20
-0.000002521006877
 30
0.0
 11
26.93074738985872
 21
2.439957023081589
 31
0.0
  0
ARC
  5
259
330
1F
100
AcDbEntity
  8
0
100
AcDbCircle
 10
31.55361031520342
 20
-2.673015811086017
 30
0.0
 40
6.892993024039881
100
AcDbArc
 50
47.88187200885913
 51
132.1181165294115
  0
LINE
  5
25A
330
1F
100
AcDbEntity
  8
0
100
AcDbLine
 10
36.17647426337224
 20
2.439956098301266
 30
0.0
 11
38.98956910938835
 21
-0.00000271864063
 31
0.0
  0
ARC
  5
25B
330
1F
100
AcDbEntity
  8
0
100
AcDbCircle
 10
43.61243189464486
 20
5.112970222071767
 30
0.0
 40
6.892993009119242
100
AcDbArc
 50
227.8818849282767
 51
312.1181175211966
  0
LINE
  5
25C
330
1F
100
AcDbEntity
  8
0
100
AcDbLine
 10
48.23529489848799
 20
-0.000002521006877
 30
0.0
 11
51.04839444868225
 21
2.439957023081589
 31
0.0
  0
ARC
  5
25D
330
1F
100
AcDbEntity
  8
0
100
AcDbCircle
 10
55.67125737402695
 20
-2.673015811085961
 30
0.0
 40
6.892993024039835
100
AcDbArc
 50
47.88187200885888
 51
132.1181165294117
  0
LINE
  5
25E
330
1F
100
AcDbEntity
  8
0
100
AcDbLine
 10
60.29412132219576
 20
2.439956098301266
 30
0.0
 11
63.10721616821189
 21
-0.00000271864063
 31
0.0
  0
ARC
  5
25F
330
1F
100
AcDbEntity
  8
0
100
AcDbCircle
 10
67.73007894883305
 20
5.329821445483716
 30
0.0
 40
7.055344492576971
100
AcDbArc
 50
229.0630217829547
 51
310.9369806665186
  0
LINE
  5
260
330
1F
100
AcDbEntity
  8
0
100
AcDbLine
 10
72.35294195731153
 20
-0.000002521006877
 30
0.0
 11
75.16604150750578
 21
2.439957023081589
 31
0.0
  0
ARC
  5
261
330
1F
100
AcDbEntity
  8
0
100
AcDbCircle
 10
79.7889025717277
 20
-2.889872486543124
 30
0.0
 40
7.055347406100245
100
AcDbArc
 50
49.06302106050529
 51
130.936939243663
  0
LINE
  5
262
330
1F
100
AcDbEntity
  8
0
100
AcDbLine
 10
84.41176732857677
 20
2.439953820256008
 30
0.0
 11
87.22486322703542
 21
-0.00000271864063
 31
0.0
  0
ARC
  5
263
330
1F
100
AcDbEntity
  8
0
100
AcDbCircle
 10
91.84772600765642
 20
5.32982841563966
 30
0.0
 40
7.055349758048462
100
AcDbArc
 50
229.0630588714633
 51
310.9369435780101
  0
LINE
  5
264
330
1F
100
AcDbEntity
  8
0
100
AcDbLine
 10
96.47058901613505
 20
-0.000002521006877
 30
0.0
 11
99.28368856632932
 21
2.439957023081575
 31
0.0
  0
ARC
  5
265
330
1F
100
AcDbEntity
  8
0
100
AcDbCircle
 10
103.9065514699832
 20
-2.889874607277314
 30
0.0
 40
7.055350213416337
100
AcDbArc
 50
49.06304929460811
 51
130.9369392436626
  0
LINE
  5
266
330
1F
100
AcDbEntity
  8
0
100
AcDbLine
 10
108.5294154398428
 20
2.439956098301266
 30
0.0
 11
111.3425102858589
 21
-0.00000271864063
 31
0.0
  0
ARC
  5
267
330
1F
100
AcDbEntity
  8
0
100
AcDbCircle
 10
115.96537306648
 20
5.329821445483689
 30
0.0
 40
7.055344492576942
100
AcDbArc
 50
229.0630217829547
 51
310.9369806665188
  0
LINE
  5
268
330
1F
100
AcDbEntity
  8
0
100
AcDbLine
 10
120.5882360749585
 20
-0.000002521006877
 30
0.0
 11
123.4013356251528
 21
2.439957023081589
 31
0.0
  0
ARC
  5
269
330
1F
100
AcDbEntity
  8
0
100
AcDbCircle
 10
128.0241957607763
 20
-2.673018328356175
 30
0.0
 40
6.892993020303113
100
AcDbArc
 50
47.88184376281253
 51
132.1180852959931
  0
LINE
  5
26A
330
1F
100
AcDbEntity
  8
0
100
AcDbLine
 10
132.6470622270647
 20
2.439951299249131
 30
0.0
 11
135.4601581255234
 21
-0.000005239647507
 31
0.0
  0
ARC
  5
26B
330
1F
100
AcDbEntity
  8
0
100
AcDbCircle
 10
140.0830209107799
 20
5.112967701064897
 30
0.0
 40
6.892993009119242
100
AcDbArc
 50
227.8818849282768
 51
312.1181175211967
  0
LINE
  5
26C
330
1F
100
AcDbEntity
  8
0
100
AcDbLine
 10
144.705883914623
 20
-0.0000050420137541
 30
0.0
 11
147.5189834648172
 21
2.439954502074712
 31
0.0
  0
ARC
  5
26D
330
1F
100
AcDbEntity
  8
0
100
AcDbCircle
 10
152.141846390162
 20
-2.67301833209291
 30
0.0
 40
6.892993024039907
100
AcDbArc
 50
47.88187200885919
 51
132.1181165294115
  0
LINE
  5
26E
330
1F
100
AcDbEntity
  8
0
100
AcDbLine
 10
156.7647103383308
 20
2.439953577294389
 30
0.0
 11
159.5778051843469
 21
-0.000005239647507
 31
0.0
  0
ARC
  5
26F
330
1F
100
AcDbEntity
  8
0
100
AcDbCircle
 10
164.2006679696034
 20
5.112967701064898
 30
0.0
 40
6.892993009119243
100
AcDbArc
 50
227.8818849282768
 51
312.1181175211967
  0
LINE
  5
270
330
1F
100
AcDbEntity
  8
0
100
AcDbLine
 10
168.8235309734466
 20
-0.0000050420137541
 30
0.0
 11
171.6366305236408
 21
2.439954502074712
 31
0.0
  0
ARC
  5
271
330
1F
100
AcDbEntity
  8
0
100
AcDbCircle
 10
176.2594934489855
 20
-2.673018332092846
 30
0.0
 40
6.89299302403986
100
AcDbArc
 50
47.88187200885901
 51
132.1181165294118
  0
LINE
  5
272
330
1F
100
AcDbEntity
  8
0
100
AcDbLine
 10
180.8823573971543
 20
2.439953577294389
 30
0.0
 11
183.6954522431704
 21
-0.000005239647507
 31
0.0
  0
ARC
  5
273
330
1F
100
AcDbEntity
  8
0
100
AcDbCircle
 10
188.3183150237916
 20
5.329818924476847
 30
0.0
 40
7.055344492576987
100
AcDbArc
 50
229.0630217829547
 51
310.9369806665185
  0
LINE
  5
274
330
1F
100
AcDbEntity
  8
0
100
AcDbLine
 10
192.9411780322701
 20
-0.0000050420137541
 30
0.0
 11
195.7542775824643
 21
2.439954502074712
 31
0.0
  0
ARC
  5
275
330
1F
100
AcDbEntity
  8
0
100
AcDbCircle
 10
200.3771386466862
 20
-2.889875007550009
 30
0.0
 40
7.055347406100251
100
AcDbArc
 50
49.06302106050525
 51
130.936939243663
  0
LINE
  5
276
330
1F
100
AcDbEntity
  8
0
100
AcDbLine
 10
205.0000034035353
 20
2.439951299249131
 30
0.0
 11
207.813099301994
 21
-0.000005239647507
 31
0.0
  0
ARC
  5
277
330
1F
100
AcDbEntity
  8
0
100
AcDbCircle
 10
212.435962082615
 20
5.329825894632775
 30
0.0
 40
7.055349758048437
100
AcDbArc
 50
229.0630588714634
 51
310.9369435780103
  0
LINE
  5
278
330
1F
100
AcDbEntity
  8
0
100
AcDbLine
 10
217.0588250910936
 20
-0.0000050420137541
 30
0.0
 11
219.8719246412879
 21
2.439954502074698
 31
0.0
  0
ARC
  5
279
330
1F
100
AcDbEntity
  8
0
100
AcDbCircle
 10
224.4947875449418
 20
-2.889877128284191
 30
0.0
 40
7.055350213416356
100
AcDbArc
 50
49.06304929460828
 51
130.9369392436628
  0
LINE
  5
27A
330
1F
100
AcDbEntity
  8
0
100
AcDbLine
 10
229.1176515148014
 20
2.439953577294389
 30
0.0
 11
231.9307463608175
 21
-0.000005239647507
 31
0.0
  0
ARC
  5
27B
330
1F
100
AcDbEntity
  8
0
100
AcDbCircle
 10
236.5536091414387
 20
5.329818924476804
 30
0.0
 40
7.055344492576936
100
AcDbArc
 50
229.0630217829547
 51
310.9369806665187
  0
LINE
  5
27C
330
1F
100
AcDbEntity
  8
0
100
AcDbLine
 10
241.1764721499171
 20
-0.0000050420137541
 30
0.0
 11
243.9895717001114
 21
2.439954502074712
 31
0.0
  0
ARC
  5
27D
330
1F
100
AcDbEntity
  8
0
100
AcDbCircle
 10
248.612431835735
 20
-2.673020849363036
 30
0.0
 40
6.892993020303102
100
AcDbArc
 50
47.88184376281261
 51
132.1180852959931
  0
LINE
  5
27E
330
1F
100
AcDbEntity
  8
0
100
AcDbLine
 10
253.2352983020233
 20
2.439948778242253
 30
0.0
 11
256.0483942004819
 21
-0.000007760654384
 31
0.0
  0
ARC
  5
27F
330
1F
100
AcDbEntity
  8
0
100
AcDbCircle
 10
260.6712569857385
 20
5.112965180057988
 30
0.0
 40
6.892993009119238
100
AcDbArc
 50
227.8818849282764
 51
312.1181175211964
  0
LINE
  5
280
330
1F
100
AcDbEntity
  8
0
100
AcDbLine
 10
265.2941199895816
 20
-0.0000075630206311
 30
0.0
 11
268.1072195397758
 21
2.439951981067835
 31
0.0
  0
ARC
  5
281
330
1F
100
AcDbEntity
  8
0
100
AcDbCircle
 10
272.7300824651205
 20
-2.673020853099755
 30
0.0
 40
6.892993024039865
100
AcDbArc
 50
47.88187200885919
 51
132.1181165294115
  0
LINE
  5
282
330
1F
100
AcDbEntity
  8
0
100
AcDbLine
 10
277.3529464132893
 20
2.439951056287512
 30
0.0
 11
280.1660412593054
 21
-0.000007760654384
 31
0.0
  0
ARC
  5
283
330
1F
100
AcDbEntity
  8
0
100
AcDbCircle
 10
284.788904044562
 20
5.112965180058021
 30
0.0
 40
6.892993009119262
100
AcDbArc
 50
227.8818849282766
 51
312.1181175211965
  0
LINE
  5
284
330
1F
100
AcDbEntity
  8
0
100
AcDbLine
 10
289.4117670484051
 20
-0.0000075630206311
 30
0.0
 11
292.2248665985994
 21
2.439951981067835
 31
0.0
  0
ARC
  5
285
330
1F
100
AcDbEntity
  8
0
100
AcDbCircle
 10
296.8477295239441
 20
-2.673020853099707
 30
0.0
 40
6.892993024039829
100
AcDbArc
 50
47.88187200885892
 51
132.1181165294118
  0
LINE
  5
286
330
1F
100
AcDbEntity
  8
0
100
AcDbLine
 10
301.4705934721129
 20
2.439951056287512
 30
0.0
 11
304.283688318129
 21
-0.000007760654384
 31
0.0
  0
ARC
  5
287
330
1F
100
AcDbEntity
  8
0
100
AcDbCircle
 10
308.9065510987501
 20
5.32981640346997
 30
0.0
 40
7.055344492576987
100
AcDbArc
 50
229.0630217829547
 51
310.9369806665185
  0
LINE
  5
288
330
1F
100
AcDbEntity
  8
0
100
AcDbLine
 10
313.5294141072286
 20
-0.0000075630206311
 30
0.0
 11
316.3425136574228
 21
2.439951981067835
 31
0.0
  0
ARC
  5
289
330
1F
100
AcDbEntity
  8
0
100
AcDbCircle
 10
320.9653747216448
 20
-2.889877528556886
 30
0.0
 40
7.055347406100251
100
AcDbArc
 50
49.06302106050525
 51
130.936939243663
  0
LINE
  5
28A
330
1F
100
AcDbEntity
  8
0
100
AcDbLine
 10
325.5882394784939
 20
2.439948778242253
 30
0.0
 11
328.4013353769525
 21
-0.000007760654384
 31
0.0
  0
ARC
  5
28B
330
1F
100
AcDbEntity
  8
0
100
AcDbCircle
 10
333.0241981575735
 20
5.329823373625914
 30
0.0
 40
7.055349758048468
100
AcDbArc
 50
229.0630588714634
 51
310.9369435780102
  0
LINE
  5
28C
330
1F
100
AcDbEntity
  8
0
100
AcDbLine
 10
337.6470611660522
 20
-0.0000075630206311
 30
0.0
 11
340.4601607162464
 21
2.439951981067821
 31
0.0
  0
ARC
  5
28D
330
1F
100
AcDbEntity
  8
0
100
AcDbCircle
 10
345.0830236199003
 20
-2.889879649291085
 30
0.0
 40
7.055350213416331
100
AcDbArc
 50
49.06304929460786
 51
130.9369392436624
  0
LINE
  5
28E
330
1F
100
AcDbEntity
  8
0
100
AcDbLine
 10
349.7058875897599
 20
2.439951056287512
 30
0.0
 11
352.518982435776
 21
-0.000007760654384
 31
0.0
  0
ARC
  5
28F
330
1F
100
AcDbEntity
  8
0
100
AcDbCircle
 10
357.1418452163972
 20
5.329816403469943
 30
0.0
 40
7.055344492576967
100
AcDbArc
 50
229.0630217829546
 51
310.9369806665187
  0
LINE
  5
290
330
1F
100
AcDbEntity
  8
0
100
AcDbLine
 10
361.7647082248757
 20
-0.0000075630206311
 30
0.0
 11
364.5778077750699
 21
2.439951981067835
 31
0.0
  0
ARC
  5
291
330
1F
100
AcDbEntity
  8
0
100
AcDbCircle
 10
369.2006679106936
 20
-2.673023370369945
 30
0.0
 40
6.892993020303182
100
AcDbArc
 50
47.88184376281296
 51
132.1180852959935
  0
LINE
  5
292
330
1F
100
AcDbEntity
  8
0
100
AcDbLine
 10
373.8235343769819
 20
2.439946257235376
 30
0.0
 11
376.6366302754405
 21
-0.000010281661261
 31
0.0
  0
ARC
  5
293
330
1F
100
AcDbEntity
  8
0
100
AcDbCircle
 10
381.259493060697
 20
5.112962659051143
 30
0.0
 40
6.892993009119262
100
AcDbArc
 50
227.8818849282766
 51
312.1181175211965
  0
LINE
  5
294
330
1F
100
AcDbEntity
  8
0
100
AcDbLine
 10
385.8823560645402
 20
-0.0000100840275081
 30
0.0
 11
388.6954556147344
 21
2.439949460060958
 31
0.0
  0
ARC
  5
295
330
1F
100
AcDbEntity
  8
0
100
AcDbCircle
 10
393.3183185400792
 20
-2.673023374106664
 30
0.0
 40
6.892993024039927
100
AcDbArc
 50
47.88187200885936
 51
132.1181165294117
  0
LINE
  5
296
330
1F
100
AcDbEntity
  8
0
100
AcDbLine
 10
397.9411824882479
 20
2.439948535280635
 30
0.0
 11
400.754277334264
 21
-0.000010281661261
 31
0.0
  0
ARC
  5
297
330
1F
100
AcDbEntity
  8
0
100
AcDbCircle
 10
405.3771401195206
 20
5.112962659051144
 30
0.0
 40
6.892993009119262
100
AcDbArc
 50
227.8818849282766
 51
312.1181175211965
  0
LINE
  5
298
330
1F
100
AcDbEntity
  8
0
100
AcDbLine
 10
410.0000031233637
 20
-0.0000100840275081
 30
0.0
 11
412.8131026735579
 21
2.439949460060958
 31
0.0
  0
ARC
  5
299
330
1F
100
AcDbEntity
  8
0
100
AcDbCircle
 10
417.4359655989027
 20
-2.673023374106615
 30
0.0
 40
6.89299302403989
100
AcDbArc
 50
47.88187200885909
 51
132.118116529412
  0
LINE
  5
29A
330
1F
100
AcDbEntity
  8
0
100
AcDbLine
 10
422.0588295470715
 20
2.439948535280635
 30
0.0
 11
424.8719243930876
 21
-0.000010281661261
 31
0.0
  0
ARC
  5
29B
330
1F
100
AcDbEntity
  8
0
100
AcDbCircle
 10
429.4947871737088
 20
5.329813882463093
 30
0.0
 40
7.055344492576987
100
AcDbArc
 50
229.0630217829547
 51
310.9369806665185
  0
LINE
  5
29C
330
1F
100
AcDbEntity
  8
0
100
AcDbLine
 10
434.1176501821872
 20
-0.0000100840275081
 30
0.0
 11
436.9307497323815
 21
2.439949460060958
 31
0.0
  0
ARC
  5
29D
330
1F
100
AcDbEntity
  8
0
100
AcDbCircle
 10
441.5536107966034
 20
-2.889880049563763
 30
0.0
 40
7.055347406100251
100
AcDbArc
 50
49.06302106050525
 51
130.936939243663
  0
LINE
  5
29E
330
1F
100
AcDbEntity
  8
0
100
AcDbLine
 10
446.1764755534525
 20
2.439946257235376
 30
0.0
 11
448.9895714519112
 21
-0.000010281661261
 31
0.0
  0
ARC
  5
29F
330
1F
100
AcDbEntity
  8
0
100
AcDbCircle
 10
453.6124342325321
 20
5.329820852619004
 30
0.0
 40
7.055349758048444
100
AcDbArc
 50
229.0630588714631
 51
310.93694357801
  0
LINE
  5
2A0
330
1F
100
AcDbEntity
  8
0
100
AcDbLine
 10
458.2352972410107
 20
-0.0000100840275081
 30
0.0
 11
461.048396791205
 21
2.439949460060944
 31
0.0
  0
ARC
  5
2A1
330
1F
100
AcDbEntity
  8
0
100
AcDbCircle
 10
465.671259694859
 20
-2.889882170297962
 30
0.0
 40
7.055350213416368
100
AcDbArc
 50
49.0630492946082
 51
130.9369392436627
  0
LINE
  5
2A2
330
1F
100
AcDbEntity
  8
0
100
AcDbLine
 10
470.2941236647186
 20
2.439948535280635
 30
0.0
 11
473.1072185107347
 21
-0.000010281661261
 31
0.0
  0
ARC
  5
2A3
330
1F
100
AcDbEntity
  8
0
100
AcDbCircle
 10
477.7300812913559
 20
5.329813882463033
 30
0.0
 40
7.055344492576941
100
AcDbArc
 50
229.0630217829544
 51
310.9369806665185
  0
LINE
  5
2A4
330
1F
100
AcDbEntity
  8
0
100
AcDbLine
 10
482.3529442998342
 20
-0.0000100840275081
 30
0.0
 11
485.1660438500285
 21
2.439949460060958
 31
0.0
  0
ARC
  5
2A5
330
1F
100
AcDbEntity
  8
0
100
AcDbCircle
 10
489.7889039856521
 20
-2.673025891376823
 30
0.0
 40
6.892993020303144
100
AcDbArc
 50
47.88184376281261
 51
132.1180852959931
  0
LINE
  5
2A6
330
1F
100
AcDbEntity
  8
0
100
AcDbLine
 10
494.4117704519405
 20
2.439943736228499
 30
0.0
 11
497.2248663503991
 21
-0.0000128026681381
 31
0.0
  0
ARC
  5
2A7
330
1F
100
AcDbEntity
  8
0
100
AcDbCircle
 10
501.8477291356557
 20
5.112960138044266
 30
0.0
 40
6.892993009119262
100
AcDbArc
 50
227.8818849282766
 51
312.1181175211965
  0
LINE
  5
2A8
330
1F
100
AcDbEntity
  8
0
100
AcDbLine
 10
506.4705921394987
 20
-0.0000126050343852
 30
0.0
 11
509.283691689693
 21
2.439946939054081
 31
0.0
  0
ARC
  5
2A9
330
1F
100
AcDbEntity
  8
0
100
AcDbCircle
 10
513.9065546150377
 20
-2.673025895113541
 30
0.0
 40
6.892993024039888
100
AcDbArc
 50
47.88187200885902
 51
132.1181165294113
  0
LINE
  5
2AA
330
1F
100
AcDbEntity
  8
0
100
AcDbLine
 10
518.5294185632066
 20
2.439946014273758
 30
0.0
 11
521.3425134092227
 21
-0.0000128026681381
 31
0.0
  0
ARC
  5
2AB
330
1F
100
AcDbEntity
  8
0
100
AcDbCircle
 10
525.9653761944792
 20
5.112960138044267
 30
0.0
 40
6.892993009119262
100
AcDbArc
 50
227.8818849282766
 51
312.1181175211965
  0
LINE
  5
2AC
330
1F
100
AcDbEntity
  8
0
100
AcDbLine
 10
530.5882391983224
 20
-0.0000126050343852
 30
0.0
 11
533.4013387485166
 21
2.439946939054081
 31
0.0
  0
ARC
  5
2AD
330
1F
100
AcDbEntity
  8
0
100
AcDbCircle
 10
538.0242016738614
 20
-2.673025895113461
 30
0.0
 40
6.892993024039867
100
AcDbArc
 50
47.88187200885928
 51
132.1181165294121
  0
LINE
  5
2AE
330
1F
100
AcDbEntity
  8
0
100
AcDbLine
 10
542.6470656220301
 20
2.439946014273758
 30
0.0
 11
545.4601604680463
 21
-0.0000128026681381
 31
0.0
  0
ARC
  5
2AF
330
1F
100
AcDbEntity
  8
0
100
AcDbCircle
 10
550.0830232486674
 20
5.329811361456216
 30
0.0
 40
7.055344492576987
100
AcDbArc
 50
229.0630217829547
 51
310.9369806665185
  0
LINE
  5
2B0
330
1F
100
AcDbEntity
  8
0
100
AcDbLine
 10
554.7058862571459
 20
-0.0000126050343852
 30
0.0
 11
557.5189858073401
 21
2.439946939054081
 31
0.0
  0
ARC
  5
2B1
330
1F
100
AcDbEntity
  8
0
100
AcDbCircle
 10
562.1418468715622
 20
-2.88988257057064
 30
0.0
 40
7.055347406100288
100
AcDbArc
 50
49.0630210605056
 51
130.9369392436633
  0
LINE
  5
2B2
330
1F
100
AcDbEntity
  8
0
100
AcDbLine
 10
566.7647116284111
 20
2.439943736228499
 30
0.0
 11
569.5778075268698
 21
-0.0000128026681381
 31
0.0
  0
ARC
  5
2B3
330
1F
100
AcDbEntity
  8
0
100
AcDbCircle
 10
574.2006703074907
 20
5.329818331612094
 30
0.0
 40
7.055349758048381
100
AcDbArc
 50
229.0630588714634
 51
310.9369435780102
  0
LINE
  5
2B4
330
1F
100
AcDbEntity
  8
0
100
AcDbLine
 10
578.8235333159693
 20
-0.0000126050343852
 30
0.0
 11
581.6366328661636
 21
2.439946939054067
 31
0.0
  0
ARC
  5
2B5
330
1F
100
AcDbEntity
  8
0
100
AcDbCircle
 10
586.2594957698177
 20
-2.889884691304806
 30
0.0
 40
7.055350213416343
100
AcDbArc
 50
49.06304929460837
 51
130.9369392436629
  0
LINE
  5
2B6
330
1F
100
AcDbEntity
  8
0
100
AcDbLine
 10
590.8823597396771
 20
2.439946014273758
 30
0.0
 11
593.6954545856933
 21
-0.0000128026681381
 31
0.0
  0
ARC
  5
2B7
330
1F
100
AcDbEntity
  8
0
100
AcDbCircle
 10
598.3183173663145
 20
5.329811361456189
 30
0.0
 40
7.055344492576967
100
AcDbArc
 50
229.0630217829546
 51
310.9369806665187
  0
LINE
  5
2B8
330
1F
100
AcDbEntity
  8
0
100
AcDbLine
 10
602.941180374793
 20
-0.0000126050343852
 30
0.0
 11
605.7542799249873
 21
2.439946939054081
 31
0.0
  0
ARC
  5
2B9
330
1F
100
AcDbEntity
  8
0
100
AcDbCircle
 10
610.3771400606108
 20
-2.673028412383668
 30
0.0
 40
6.89299302030312
100
AcDbArc
 50
47.8818437628128
 51
132.1180852959933
  0
LINE
  5
2BA
330
1F
100
AcDbEntity
  8
0
100
AcDbLine
 10
615.0000065268991
 20
2.439941215221622
 30
0.0
 11
617.8131024253578
 21
-0.0000153236750151
 31
0.0
  0
ARC
  5
2BB
330
1F
100
AcDbEntity
  8
0
100
AcDbCircle
 10
622.4359652106143
 20
5.112957617037389
 30
0.0
 40
6.892993009119262
100
AcDbArc
 50
227.8818849282766
 51
312.1181175211965
  0
LINE
  5
2BC
330
1F
100
AcDbEntity
  8
0
100
AcDbLine
 10
627.0588282144574
 20
-0.0000151260412622
 30
0.0
 11
629.8719277646516
 21
2.439944418047204
 31
0.0
  0
ARC
  5
2BD
330
1F
100
AcDbEntity
  8
0
100
AcDbCircle
 10
634.4947906899964
 20
-2.673028416120449
 30
0.0
 40
6.89299302403995
100
AcDbArc
 50
47.88187200885919
 51
132.1181165294115
  0
LINE
  5
2BE
330
1F
100
AcDbEntity
  8
0
100
AcDbLine
 10
639.1176546381652
 20
2.439943493266881
 30
0.0
 11
641.9307494841813
 21
-0.0000153236750151
 31
0.0
  0
ARC
  5
2BF
330
1F
100
AcDbEntity
  8
0
100
AcDbCircle
 10
646.5536122694378
 20
5.11295761703739
 30
0.0
 40
6.892993009119262
100
AcDbArc
 50
227.8818849282766
 51
312.1181175211965
  0
LINE
  5
2C0
330
1F
100
AcDbEntity
  8
0
100
AcDbLine
 10
651.1764752732809
 20
-0.0000151260412622
 30
0.0
 11
653.9895748234751
 21
2.439944418047204
 31
0.0
  0
ARC
  5
2C1
330
1F
100
AcDbEntity
  8
0
100
AcDbCircle
 10
658.6124377488199
 20
-2.673028416120338
 30
0.0
 40
6.892993024039867
100
AcDbArc
 50
47.88187200885928
 51
132.1181165294121
  0
LINE
  5
2C2
330
1F
100
AcDbEntity
  8
0
100
AcDbLine
 10
663.2353016969886
 20
2.439943493266881
 30
0.0
 11
666.0483965430048
 21
-0.0000153236750151
 31
0.0
  0
ARC
  5
2C3
330
1F
100
AcDbEntity
  8
0
100
AcDbCircle
 10
670.671259323626
 20
5.329808840449339
 30
0.0
 40
7.055344492576987
100
AcDbArc
 50
229.0630217829547
 51
310.9369806665185
  0
LINE
  5
2C4
330
1F
100
AcDbEntity
  8
0
100
AcDbLine
 10
675.2941223321045
 20
-0.0000151260412622
 30
0.0
 11
678.1072218822987
 21
2.439944418047204
 31
0.0
  0
ARC
  5
2C5
330
1F
100
AcDbEntity
  8
0
100
AcDbCircle
 10
682.7300829465207
 20
-2.889885091577517
 30
0.0
 40
7.055347406100288
100
AcDbArc
 50
49.0630210605056
 51
130.9369392436633
  0
LINE
  5
2C6
330
1F
100
AcDbEntity
  8
0
100
AcDbLine
 10
687.3529477033697
 20
2.439941215221622
 30
0.0
 11
690.1660436018284
 21
-0.0000153236750151
 31
0.0
  0
ARC
  5
2C7
330
1F
100
AcDbEntity
  8
0
100
AcDbCircle
 10
694.7889063824495
 20
5.329815810605283
 30
0.0
 40
7.055349758048506
100
AcDbArc
 50
229.063058871463
 51
310.9369435780099
  0
LINE
  5
2C8
330
1F
100
AcDbEntity
  8
0
100
AcDbLine
 10
699.411769390928
 20
-0.0000151260412622
 30
0.0
 11
702.2248689411222
 21
2.43994441804719
 31
0.0
  0
ARC
  5
2C9
330
1F
100
AcDbEntity
  8
0
100
AcDbCircle
 10
706.8477318447762
 20
-2.889887212311683
 30
0.0
 40
7.055350213416343
100
AcDbArc
 50
49.06304929460837
 51
130.9369392436629
  0
LINE
  5
2CA
330
1F
100
AcDbEntity
  8
0
100
AcDbLine
 10
711.4705958146357
 20
2.439943493266881
 30
0.0
 11
714.2836906606519
 21
-0.0000153236750151
 31
0.0
  0
ARC
  5
2CB
330
1F
100
AcDbEntity
  8
0
100
AcDbCircle
 10
718.9065534412731
 20
5.329808840449312
 30
0.0
 40
7.055344492576967
100
AcDbArc
 50
229.0630217829546
 51
310.9369806665187
  0
LINE
  5
2CC
330
1F
100
AcDbEntity
  8
0
100
AcDbLine
 10
723.5294164497515
 20
-0.0000151260412622
 30
0.0
 11
726.3425159999457
 21
2.439944418047204
 31
0.0
  0
ARC
  5
2CD
330
1F
100
AcDbEntity
  8
0
100
AcDbCircle
 10
730.9653761355694
 20
-2.673030933390545
 30
0.0
 40
6.89299302030312
100
AcDbArc
 50
47.8818437628128
 51
132.1180852959933
  0
LINE
  5
2CE
330
1F
100
AcDbEntity
  8
0
100
AcDbLine
 10
735.5882426018577
 20
2.439938694214745
 30
0.0
 11
738.4013385003163
 21
-0.0000178446818921
 31
0.0
  0
ARC
  5
2CF
330
1F
100
AcDbEntity
  8
0
100
AcDbCircle
 10
743.0242012855728
 20
5.112955096030512
 30
0.0
 40
6.892993009119262
100
AcDbArc
 50
227.8818849282766
 51
312.1181175211965
  0
LINE
  5
2D0
330
1F
100
AcDbEntity
  8
0
100
AcDbLine
 10
747.647064289416
 20
-0.0000176470481392
 30
0.0
 11
750.4601638396102
 21
2.439941897040327
 31
0.0
  0
ARC
  5
2D1
330
1F
100
AcDbEntity
  8
0
100
AcDbCircle
 10
755.083026764955
 20
-2.673030937127326
 30
0.0
 40
6.89299302403995
100
AcDbArc
 50
47.88187200885919
 51
132.1181165294115
  0
LINE
  5
2D2
330
1F
100
AcDbEntity
  8
0
100
AcDbLine
 10
759.7058907131238
 20
2.439940972260004
 30
0.0
 11
762.5189855591399
 21
-0.0000178446818921
 31
0.0
  0
ARC
  5
2D3
330
1F
100
AcDbEntity
  8
0
100
AcDbCircle
 10
767.1418483443964
 20
5.112955096030513
 30
0.0
 40
6.892993009119262
100
AcDbArc
 50
227.8818849282766
 51
312.1181175211965
  0
LINE
  5
2D4
330
1F
100
AcDbEntity
  8
0
100
AcDbLine
 10
771.7647113482395
 20
-0.0000176470481392
 30
0.0
 11
774.5778108984339
 21
2.439941897040327
 31
0.0
  0
ARC
  5
2D5
330
1F
100
AcDbEntity
  8
0
100
AcDbCircle
 10
779.2006738237785
 20
-2.673030937127152
 30
0.0
 40
6.892993024039745
100
AcDbArc
 50
47.88187200885892
 51
132.1181165294118
  0
LINE
  5
2D6
330
1F
100
AcDbEntity
  8
0
100
AcDbLine
 10
783.8235377719472
 20
2.439940972260004
 30
0.0
 11
786.6366326179634
 21
-0.0000178446818921
 31
0.0
  0
ARC
  5
2D7
330
1F
100
AcDbEntity
  8
0
100
AcDbCircle
 10
791.2594953985846
 20
5.329806319442462
 30
0.0
 40
7.055344492576987
100
AcDbArc
 50
229.0630217829547
 51
310.9369806665185
  0
LINE
  5
2D8
330
1F
100
AcDbEntity
  8
0
100
AcDbLine
 10
795.882358407063
 20
-0.0000176470481392
 30
0.0
 11
798.6954579572572
 21
2.439941897040327
 31
0.0
  0
ARC
  5
2D9
330
1F
100
AcDbEntity
  8
0
100
AcDbCircle
 10
803.3183190214792
 20
-2.889887612584394
 30
0.0
 40
7.055347406100288
100
AcDbArc
 50
49.0630210605056
 51
130.9369392436633
  0
LINE
  5
2DA
330
1F
100
AcDbEntity
  8
0
100
AcDbLine
 10
807.9411837783283
 20
2.439938694214745
 30
0.0
 11
810.7542796767869
 21
-0.0000178446818921
 31
0.0
  0
ARC
  5
2DB
330
1F
100
AcDbEntity
  8
0
100
AcDbCircle
 10
815.3771424574079
 20
5.329813289598406
 30
0.0
 40
7.055349758048506
100
AcDbArc
 50
229.063058871463
 51
310.9369435780099
  0
LINE
  5
2DC
330
1F
100
AcDbEntity
  8
0
100
AcDbLine
 10
820.0000054658866
 20
-0.0000176470481392
 30
0.0
 11
822.8131050160808
 21
2.439941897040313
 31
0.0
  0
ARC
  5
2DD
330
1F
100
AcDbEntity
  8
0
100
AcDbCircle
 10
827.4359679197347
 20
-2.88988973331856
 30
0.0
 40
7.055350213416343
100
AcDbArc
 50
49.06304929460837
 51
130.9369392436629
  0
LINE
  5
2DE
330
1F
100
AcDbEntity
  8
0
100
AcDbLine
 10
832.0588318895943
 20
2.439940972260004
 30
0.0
 11
834.8719267356104
 21
-0.0000178446818921
 31
0.0
  0
ARC
  5
2DF
330
1F
100
AcDbEntity
  8
0
100
AcDbCircle
 10
839.4947895162315
 20
5.329806319442435
 30
0.0
 40
7.055344492576967
100
AcDbArc
 50
229.0630217829546
 51
310.9369806665187
  0
LINE
  5
2E0
330
1F
100
AcDbEntity
  8
0
100
AcDbLine
 10
844.1176525247101
 20
-0.0000176470481392
 30
0.0
 11
846.9307520749044
 21
2.439941897040327
 31
0.0
  0
ENDSEC
  0
SECTION
  2
OBJECTS
  0
DICTIONARY
  5
C
330
0
100
AcDbDictionary
  3
ACAD_GROUP
350
D
  3
ACAD_LAYOUT
350
1A
  3
ACAD_MLINESTYLE
350
17
  3
ACAD_PLOTSETTINGS
350
19
  3
ACAD_PLOTSTYLENAME
350
E
  3
ACDBVARIABLEDICTIONARY
350
F9
  3
ACDBHEADERROUNDTRIPXREC
350
329
  0
DICTIONARY
  5
2E7
330
1F
100
AcDbDictionary
280
     1
  3
ACAD_LAYOUTSELFREF
360
34B
  0
DICTIONARY
  5
2E9
330
1B
100
AcDbDictionary
280
     1
  3
ACAD_LAYOUTSELFREF
360
34A
  0
DICTIONARY
  5
D
102
{ACAD_REACTORS
330
C
102
}
330
C
100
AcDbDictionary
  0
DICTIONARY
  5
1A
102
{ACAD_REACTORS
330
C
102
}
330
C
100
AcDbDictionary
  0
DICTIONARY
  5
17
102
{ACAD_REACTORS
330
C
102
}
330
C
100
AcDbDictionary
  3
STANDARD
350
18
  0
DICTIONARY
  5
19
102
{ACAD_REACTORS
330
C
102
}
330
C
100
AcDbDictionary
  0
ACDBDICTIONARYWDFLT
  5
E
102
{ACAD_REACTORS
330
C
102
}
330
C
100
AcDbDictionary
281
     1
  3
Normal
350
F
100
AcDbDictionaryWithDefault
340
F
  0
DICTIONARY
  5
F9
102
{ACAD_REACTORS
330
C
102
}
330
C
100
AcDbDictionary
  3
DIMASSOC
350
FC
  3
HIDETEXT
350
FB
  3
SORTENTS
350
FA
  0
DICTIONARY
  5
329
102
{ACAD_REACTORS
330
C
102
}
330
C
100
AcDbDictionary
  3
TSTACKALIGN
350
32A
  3
TSTACKSIZE
350
32B
  3
HYPERLINKBASE
350
32C
  3
STYLESHEET
350
32D
  3
LAYOUTDICT
350
32E
  3
PLOTSETDICT
350
32F
  3
PLOTSTYLNAMDICT
350
330
  3
LWETCUNION
350
331
  3
INSUNITS
350
332
  3
CEPSNTYPE
350
333
  3
FINGERPRINTGUID
350
334
  3
VERSIONGUID
350
335
  3
PSVPSCALE
350
336
  3
DIMSTYLEDATA
350
337
  3
PUCSORTHOREF
350
338
  3
PUCSORTHOVIEW
350
339
  3
PUCSBASE
350
33A
  3
PUCSORGTOP
350
33B
  3
PUCSORGBOTTOM
350
33C
  3
PUCSORGLEFT
350
33D
  3
PUCSORGRIGHT
350
33E
  3
PUCSORGFRONT
350
33F
  3
PUCSORGBACK
350
340
  3
UCSORTHOREF
350
341
  3
UCSORTHOVIEW
350
342
  3
UCSBASE
350
343
  3
UCSORGTOP
350
344
  3
UCSORGBOTTOM
350
345
  3
UCSORGLEFT
350
346
  3
UCSORGRIGHT
350
347
  3
UCSORGFRONT
350
348
  3
UCSORGBACK
350
349
  0
XRECORD
  5
34B
102
{ACAD_REACTORS
330
2E7
102
}
330
2E7
100
AcDbXrecord
340
1F
  0
XRECORD
  5
34A
102
{ACAD_REACTORS
330
2E9
102
}
330
2E9
100
AcDbXrecord
340
1B
  0
MLINESTYLE
  5
18
102
{ACAD_REACTORS
330
17
102
}
330
17
100
AcDbMlineStyle
  2
STANDARD
 70
     0
  3

 62
   256
 51
90.0
 52
90.0
 71
     2
 49
0.5
 62
   256
  6
BYLAYER
 49
-0.5
 62
   256
  6
BYLAYER
  0
ACDBPLACEHOLDER
  5
F
102
{ACAD_REACTORS
330
E
102
}
330
E
100
AcDbPlaceHolder
280
     0
  0
DICTIONARYVAR
  5
FC
102
{ACAD_REACTORS
330
F9
102
}
330
F9
100
DictionaryVariables
280
     0
  1
2
  0
DICTIONARYVAR
  5
FB
102
{ACAD_REACTORS
330
F9
102
}
330
F9
100
DictionaryVariables
280
     0
  1
1
  0
DICTIONARYVAR
  5
FA
102
{ACAD_REACTORS
330
F9
102
}
330
F9
100
DictionaryVariables
280
     0
  1
35
  0
XRECORD
  5
32A
102
{ACAD_REACTORS
330
329
102
}
330
329
100
AcDbXrecord
 90
        1
  0
XRECORD
  5
32B
102
{ACAD_REACTORS
330
329
102
}
330
329
100
AcDbXrecord
 90
       70
  0
XRECORD
  5
32C
102
{ACAD_REACTORS
330
329
102
}
330
329
100
AcDbXrecord
  1

  0
XRECORD
  5
32D
102
{ACAD_REACTORS
330
329
102
}
330
329
100
AcDbXrecord
  1

  0
XRECORD
  5
32E
102
{ACAD_REACTORS
330
329
102
}
330
329
100
AcDbXrecord
340
1A
  0
XRECORD
  5
32F
102
{ACAD_REACTORS
330
329
102
}
330
329
100
AcDbXrecord
340
19
  0
XRECORD
  5
330
102
{ACAD_REACTORS
330
329
102
}
330
329
100
AcDbXrecord
340
E
  0
XRECORD
  5
331
102
{ACAD_REACTORS
330
329
102
}
330
329
100
AcDbXrecord
 90
    10781
  0
XRECORD
  5
332
102
{ACAD_REACTORS
330
329
102
}
330
329
100
AcDbXrecord
 90
        4
  0
XRECORD
  5
333
102
{ACAD_REACTORS
330
329
102
}
330
329
100
AcDbXrecord
 90
        0
  0
XRECORD
  5
334
102
{ACAD_REACTORS
330
329
102
}
330
329
100
AcDbXrecord
  1
{B131C980-FA99-11D8-9AB3-006067068FD3}
  0
XRECORD
  5
335
102
{ACAD_REACTORS
330
329
102
}
330
329
100
AcDbXrecord
  1
{AE3DD97F-1047-4207-9BCA-618AD30F889C}
  0
XRECORD
  5
336
102
{ACAD_REACTORS
330
329
102
}
330
329
100
AcDbXrecord
 40
0.0
  0
XRECORD
  5
337
102
{ACAD_REACTORS
330
329
102
}
330
329
100
AcDbXrecord
1000
DSTYLE
1002
{
1070
   278
 70
    44
1002
}
  0
XRECORD
  5
338
102
{ACAD_REACTORS
330
329
102
}
330
329
100
AcDbXrecord
340
0
  0
XRECORD
  5
339
102
{ACAD_REACTORS
330
329
102
}
330
329
100
AcDbXrecord
 70
     0
  0
XRECORD
  5
33A
102
{ACAD_REACTORS
330
329
102
}
330
329
100
AcDbXrecord
340
0
  0
XRECORD
  5
33B
102
{ACAD_REACTORS
330
329
102
}
330
329
100
AcDbXrecord
 10
0.0
 20
0.0
 30
0.0
  0
XRECORD
  5
33C
102
{ACAD_REACTORS
330
329
102
}
330
329
100
AcDbXrecord
 10
0.0
 20
0.0
 30
0.0
  0
XRECORD
  5
33D
102
{ACAD_REACTORS
330
329
102
}
330
329
100
AcDbXrecord
 10
0.0
 20
0.0
 30
0.0
  0
XRECORD
  5
33E
102
{ACAD_REACTORS
330
329
102
}
330
329
100
AcDbXrecord
 10
0.0
 20
0.0
 30
0.0
  0
XRECORD
  5
33F
102
{ACAD_REACTORS
330
329
102
}
330
329
100
AcDbXrecord
 10
0.0
 20
0.0
 30
0.0
  0
XRECORD
  5
340
102
{ACAD_REACTORS
330
329
102
}
330
329
100
AcDbXrecord
 10
0.0
 20
0.0
 30
0.0
  0
XRECORD
  5
341
102
{ACAD_REACTORS
330
329
102
}
330
329
100
AcDbXrecord
340
0
  0
XRECORD
  5
342
102
{ACAD_REACTORS
330
329
102
}
330
329
100
AcDbXrecord
 70
     0
  0
XRECORD
  5
343
102
{ACAD_REACTORS
330
329
102
}
330
329
100
AcDbXrecord
340
0
  0
XRECORD
  5
344
102
{ACAD_REACTORS
330
329
102
}
330
329
100
AcDbXrecord
 10
0.0
 20
0.0
 30
0.0
  0
XRECORD
  5
345
102
{ACAD_REACTORS
330
329
102
}
330
329
100
AcDbXrecord
 10
0.0
 20
0.0
 30
0.0
  0
XRECORD
  5
346
102
{ACAD_REACTORS
330
329
102
}
330
329
100
AcDbXrecord
 10
0.0
 20
0.0
 30
0.0
  0
XRECORD
  5
347
102
{ACAD_REACTORS
330
329
102
}
330
329
100
AcDbXrecord
 10
0.0
 20
0.0
 30
0.0
  0
XRECORD
  5
348
102
{ACAD_REACTORS
330
329
102
}
330
329
100
AcDbXrecord
 10
0.0
 20
0.0
 30
0.0
  0
XRECORD
  5
349
102
{ACAD_REACTORS
330
329
102
}
330
329
100
AcDbXrecord
 10
0.0
 20
0.0
 30
0.0
  0
ENDSEC
  0
EOF
