  0
SECTION
  2
HEADER
  9
$ACADVER
  1
AC1015
  9
$ACADMAINTVER
 70
     6
  9
$DWGCODEPAGE
  3
ANSI_1252
  9
$INSBASE
 10
0.0
 20
0.0
 30
0.0
  9
$EXTMIN
 10
-35.0
 20
-0.1063878288778328
 30
0.0
  9
$EXTMAX
 10
885.0
 20
4.10638782887783
 30
0.0
  9
$LIMMIN
 10
0.0
 20
0.0
  9
$LIMMAX
 10
80300.0
 20
57400.0
  9
$ORTHOMODE
 70
     0
  9
$REGENMODE
 70
     1
  9
$FILLMODE
 70
     1
  9
$QTEXTMODE
 70
     0
  9
$MIRRTEXT
 70
     0
  9
$LTSCALE
 40
500.0
  9
$ATTMODE
 70
     1
  9
$TEXTSIZE
 40
75.0
  9
$TRACEWID
 40
0.05
  9
$TEXTSTYLE
  7
STANDARD
  9
$CLAYER
  8
0
  9
$CELTYPE
  6
BYLAYER
  9
$CECOLOR
 62
   256
  9
$CELTSCALE
 40
1.0
  9
$DISPSILH
 70
     0
  9
$DIMSCALE
 40
10.0
  9
$DIMASZ
 40
2.0
  9
$DIMEXO
 40
2.0
  9
$DIMDLI
 40
0.0
  9
$DIMRND
 40
0.0
  9
$DIMDLE
 40
5.0
  9
$DIMEXE
 40
5.0
  9
$DIMTP
 40
0.0
  9
$DIMTM
 40
0.0
  9
$DIMTXT
 40
3.0
  9
$DIMCEN
 40
0.0
  9
$DIMTSZ
 40
0.0
  9
$DIMTOL
 70
     0
  9
$DIMLIM
 70
     0
  9
$DIMTIH
 70
     0
  9
$DIMTOH
 70
     0
  9
$DIMSE1
 70
     0
  9
$DIMSE2
 70
     0
  9
$DIMTAD
 70
     1
  9
$DIMZIN
 70
     0
  9
$DIMBLK
  1

  9
$DIMASO
 70
     1
  9
$DIMSHO
 70
     1
  9
$DIMPOST
  1

  9
$DIMAPOST
  1

  9
$DIMALT
 70
     0
  9
$DIMALTD
 70
     0
  9
$DIMALTF
 40
25.4
  9
$DIMLFAC
 40
1.0
  9
$DIMTOFL
 70
     1
  9
$DIMTVP
 40
0.0
  9
$DIMTIX
 70
     0
  9
$DIMSOXD
 70
     0
  9
$DIMSAH
 70
     0
  9
$DIMBLK1
  1

  9
$DIMBLK2
  1

  9
$DIMSTYLE
  2
STANDARD
  9
$DIMCLRD
 70
   256
  9
$DIMCLRE
 70
   256
  9
$DIMCLRT
 70
   256
  9
$DIMTFAC
 40
0.3333333333333333
  9
$DIMGAP
 40
2.0
  9
$DIMJUST
 70
     0
  9
$DIMSD1
 70
     0
  9
$DIMSD2
 70
     0
  9
$DIMTOLJ
 70
     1
  9
$DIMTZIN
 70
     0
  9
$DIMALTZ
 70
     0
  9
$DIMALTTZ
 70
     0
  9
$DIMUPT
 70
     0
  9
$DIMDEC
 70
     4
  9
$DIMTDEC
 70
     4
  9
$DIMALTU
 70
     2
  9
$DIMALTTD
 70
     2
  9
$DIMTXSTY
  7
STANDARD
  9
$DIMAUNIT
 70
     0
  9
$DIMADEC
 70
     0
  9
$DIMALTRND
 40
0.0
  9
$DIMAZIN
 70
     0
  9
$DIMDSEP
 70
    46
  9
$DIMATFIT
 70
     3
  9
$DIMFRAC
 70
     0
  9
$DIMLDRBLK
  1

  9
$DIMLUNIT
 70
     2
  9
$DIMLWD
 70
    -2
  9
$DIMLWE
 70
    -2
  9
$DIMTMOVE
 70
     0
  9
$LUNITS
 70
     2
  9
$LUPREC
 70
     0
  9
$SKETCHINC
 40
50.0
  9
$FILLETRAD
 40
0.0
  9
$AUNITS
 70
     0
  9
$AUPREC
 70
     2
  9
$MENU
  1
C:\AutoCAD\R13\win\SUPPORT\ACAD
  9
$ELEVATION
 40
0.0
  9
$PELEVATION
 40
0.0
  9
$THICKNESS
 40
0.0
  9
$LIMCHECK
 70
     0
  9
$CHAMFERA
 40
0.0
  9
$CHAMFERB
 40
0.0
  9
$CHAMFERC
 40
0.0
  9
$CHAMFERD
 40
0.0
  9
$SKPOLY
 70
     0
  9
$TDCREATE
 40
2450734.229041782
  9
$TDUCREATE
 40
2450733.833208449
  9
$TDUPDATE
 40
2453213.12840169
  9
$TDUUPDATE
 40
2453212.732568357
  9
$TDINDWG
 40
0.3398779861
  9
$TDUSRTIMER
 40
0.3398779861
  9
$USRTIMER
 70
     1
  9
$ANGBASE
 50
0.0
  9
$ANGDIR
 70
     0
  9
$PDMODE
 70
     3
  9
$PDSIZE
 40
100.0
  9
$PLINEWID
 40
0.0
  9
$SPLFRAME
 70
     0
  9
$SPLINETYPE
 70
     6
  9
$SPLINESEGS
 70
     8
  9
$HANDSEED
  5
2A8
  9
$SURFTAB1
 70
     6
  9
$SURFTAB2
 70
     6
  9
$SURFTYPE
 70
     6
  9
$SURFU
 70
     6
  9
$SURFV
 70
     6
  9
$UCSBASE
  2

  9
$UCSNAME
  2

  9
$UCSORG
 10
0.0
 20
0.0
 30
0.0
  9
$UCSXDIR
 10
1.0
 20
0.0
 30
0.0
  9
$UCSYDIR
 10
0.0
 20
1.0
 30
0.0
  9
$UCSORTHOREF
  2

  9
$UCSORTHOVIEW
 70
     0
  9
$UCSORGTOP
 10
0.0
 20
0.0
 30
0.0
  9
$UCSORGBOTTOM
 10
0.0
 20
0.0
 30
0.0
  9
$UCSORGLEFT
 10
0.0
 20
0.0
 30
0.0
  9
$UCSORGRIGHT
 10
0.0
 20
0.0
 30
0.0
  9
$UCSORGFRONT
 10
0.0
 20
0.0
 30
0.0
  9
$UCSORGBACK
 10
0.0
 20
0.0
 30
0.0
  9
$PUCSBASE
  2

  9
$PUCSNAME
  2

  9
$PUCSORG
 10
0.0
 20
0.0
 30
0.0
  9
$PUCSXDIR
 10
1.0
 20
0.0
 30
0.0
  9
$PUCSYDIR
 10
0.0
 20
1.0
 30
0.0
  9
$PUCSORTHOREF
  2

  9
$PUCSORTHOVIEW
 70
     0
  9
$PUCSORGTOP
 10
0.0
 20
0.0
 30
0.0
  9
$PUCSORGBOTTOM
 10
0.0
 20
0.0
 30
0.0
  9
$PUCSORGLEFT
 10
0.0
 20
0.0
 30
0.0
  9
$PUCSORGRIGHT
 10
0.0
 20
0.0
 30
0.0
  9
$PUCSORGFRONT
 10
0.0
 20
0.0
 30
0.0
  9
$PUCSORGBACK
 10
0.0
 20
0.0
 30
0.0
  9
$USERI1
 70
     0
  9
$USERI2
 70
     0
  9
$USERI3
 70
     0
  9
$USERI4
 70
     0
  9
$USERI5
 70
     0
  9
$USERR1
 40
0.0
  9
$USERR2
 40
0.0
  9
$USERR3
 40
0.0
  9
$USERR4
 40
0.0
  9
$USERR5
 40
100.0
  9
$WORLDVIEW
 70
     1
  9
$SHADEDGE
 70
     3
  9
$SHADEDIF
 70
    70
  9
$TILEMODE
 70
     1
  9
$MAXACTVP
 70
    16
  9
$PINSBASE
 10
0.0
 20
0.0
 30
0.0
  9
$PLIMCHECK
 70
     0
  9
$PEXTMIN
 10
0.0
 20
0.0
 30
0.0
  9
$PEXTMAX
 10
801.0
 20
575.0
 30
0.0
  9
$PLIMMIN
 10
0.0
 20
0.0
  9
$PLIMMAX
 10
803.0
 20
574.0
  9
$UNITMODE
 70
     0
  9
$VISRETAIN
 70
     0
  9
$PLINEGEN
 70
     1
  9
$PSLTSCALE
 70
     0
  9
$TREEDEPTH
 70
  3020
  9
$CMLSTYLE
  2
STANDARD
  9
$CMLJUST
 70
     0
  9
$CMLSCALE
 40
1.0
  9
$PROXYGRAPHICS
 70
     1
  9
$MEASUREMENT
 70
     1
  9
$CELWEIGHT
370
    -1
  9
$ENDCAPS
280
     0
  9
$JOINSTYLE
280
     0
  9
$LWDISPLAY
290
     0
  9
$INSUNITS
 70
     0
  9
$HYPERLINKBASE
  1

  9
$STYLESHEET
  1

  9
$XEDIT
290
     1
  9
$CEPSNTYPE
380
     0
  9
$PSTYLEMODE
290
     1
  9
$FINGERPRINTGUID
  2
{FD5FAFEF-C7D7-11D5-9AB3-006067068FD3}
  9
$VERSIONGUID
  2
{98B3F71D-06FB-456D-B51A-1EA7ABDCCD49}
  9
$EXTNAMES
290
     1
  9
$PSVPSCALE
 40
0.0
  9
$OLESTARTUP
290
     0
  0
ENDSEC
  0
SECTION
  2
CLASSES
  0
CLASS
  1
LWPOLYLINE
  2
AcDbPolyline
  3
AutoCAD 2000
 90
        0
280
     0
281
     1
  0
CLASS
  1
DICTIONARYVAR
  2
AcDbDictionaryVar
  3
ObjectDBX Classes
 90
        0
280
     0
281
     0
  0
CLASS
  1
ACDBDICTIONARYWDFLT
  2
AcDbDictionaryWithDefault
  3
ObjectDBX Classes
 90
        0
280
     0
281
     0
  0
CLASS
  1
ACDBPLACEHOLDER
  2
AcDbPlaceHolder
  3
ObjectDBX Classes
 90
        0
280
     0
281
     0
  0
CLASS
  1
LAYOUT
  2
AcDbLayout
  3
ObjectDBX Classes
 90
        0
280
     0
281
     0
  0
CLASS
  1
LONG_TRANSACTION
  2
AcDbLongTransaction
  3
AutoCAD 2000
 90
   -65536
280
     1
281
     0
  0
CLASS
  1
LWPOLYLINE
  2
AcDbPolyline
  3
AutoCAD 2000
 90
        0
280
     0
281
     1
  0
CLASS
  1
HATCH
  2
AcDbHatch
  3
AutoCAD 2000
 90
        0
280
     0
281
     1
  0
CLASS
  1
XRECORD
  2
AcDbXrecord
  3
AutoCAD 2000
 90
        0
280
     0
281
     0
  0
ENDSEC
  0
SECTION
  2
TABLES
  0
TABLE
  2
VPORT
  5
1D
330
0
100
AcDbSymbolTable
 70
     2
  0
VPORT
  5
2A3
330
1D
100
AcDbSymbolTableRecord
100
AcDbViewportTableRecord
  2
*Active
 70
     0
 10
0.0
 20
0.0
 11
1.0
 21
1.0
 12
425.0
 22
2.0
 13
0.0
 23
0.0
 14
5.0
 24
5.0
 15
10.0
 25
10.0
 16
0.0
 26
0.0
 36
1.0
 17
0.0
 27
0.0
 37
0.0
 40
609.7306369020459
 41
1.516372795969773
 42
50.0
 43
0.0
 44
0.0
 50
0.0
 51
0.0
 71
     0
 72
   100
 73
     1
 74
     0
 75
     0
 76
     0
 77
     0
 78
     2
281
     0
 65
     1
110
0.0
120
0.0
130
0.0
111
1.0
121
0.0
131
0.0
112
0.0
122
1.0
132
0.0
 79
     0
146
0.0
  0
ENDTAB
  0
TABLE
  2
LTYPE
  5
18
330
0
100
AcDbSymbolTable
 70
     1
  0
LTYPE
  5
19
330
18
100
AcDbSymbolTableRecord
100
AcDbLinetypeTableRecord
  2
BYBLOCK
 70
     0
  3

 72
    65
 73
     0
 40
0.0
  0
LTYPE
  5
1A
330
18
100
AcDbSymbolTableRecord
100
AcDbLinetypeTableRecord
  2
BYLAYER
 70
     0
  3

 72
    65
 73
     0
 40
0.0
  0
LTYPE
  5
A
330
18
100
AcDbSymbolTableRecord
100
AcDbLinetypeTableRecord
  2
CONTINUOUS
 70
     0
  3
Solid line
 72
    65
 73
     0
 40
0.0
  0
ENDTAB
  0
TABLE
  2
LAYER
  5
14
330
0
100
AcDbSymbolTable
 70
     1
  0
LAYER
  5
6
330
14
100
AcDbSymbolTableRecord
100
AcDbLayerTableRecord
  2
0
 70
     0
 62
     7
  6
CONTINUOUS
370
    -3
390
7
  0
ENDTAB
  0
TABLE
  2
STYLE
  5
15
330
0
100
AcDbSymbolTable
 70
     1
  0
STYLE
  5
16
330
15
100
AcDbSymbolTableRecord
100
AcDbTextStyleTableRecord
  2
STANDARD
 70
     0
 40
0.0
 41
1.0
 50
0.0
 71
     0
 42
75.0
  3
isocp.shx
  4

  0
ENDTAB
  0
TABLE
  2
VIEW
  5
1B
330
0
100
AcDbSymbolTable
 70
     0
  0
ENDTAB
  0
TABLE
  2
UCS
  5
1C
330
0
100
AcDbSymbolTable
 70
     0
  0
ENDTAB
  0
TABLE
  2
APPID
  5
1F
330
0
100
AcDbSymbolTable
 70
     1
  0
APPID
  5
20
330
1F
100
AcDbSymbolTableRecord
100
AcDbRegAppTableRecord
  2
ACAD
 70
     0
  0
ENDTAB
  0
TABLE
  2
DIMSTYLE
  5
21
330
0
100
AcDbSymbolTable
 70
     1
100
AcDbDimStyleTable
  0
DIMSTYLE
105
27
330
21
100
AcDbSymbolTableRecord
100
AcDbDimStyleTableRecord
  2
STANDARD
 70
     0
271
     0
272
     0
279
     2
340
16
  0
ENDTAB
  0
TABLE
  2
BLOCK_RECORD
  5
1
330
0
100
AcDbSymbolTable
 70
     0
  0
BLOCK_RECORD
  5
2
330
1
100
AcDbSymbolTableRecord
100
AcDbBlockTableRecord
  2
*MODEL_SPACE
340
C
  0
BLOCK_RECORD
  5
E
330
1
100
AcDbSymbolTableRecord
100
AcDbBlockTableRecord
  2
*PAPER_SPACE
340
13
  0
ENDTAB
  0
ENDSEC
  0
SECTION
  2
BLOCKS
  0
BLOCK
  5
5
330
2
100
AcDbEntity
  8
0
100
AcDbBlockBegin
  2
*MODEL_SPACE
 70
     0
 71
     0
 10
0.0
 20
0.0
 30
0.0
  3
*MODEL_SPACE
  1

  0
ENDBLK
  5
B
330
2
100
AcDbEntity
  8
0
100
AcDbBlockEnd
  0
BLOCK
  5
11
330
E
100
AcDbEntity
 67
     1
  8
0
100
AcDbBlockBegin
  2
*PAPER_SPACE
 70
     0
 71
     0
 10
0.0
 20
0.0
 30
0.0
  3
*PAPER_SPACE
  1

  0
ENDBLK
  5
12
330
E
100
AcDbEntity
 67
     1
  8
0
100
AcDbBlockEnd
  0
ENDSEC
  0
SECTION
  2
ENTITIES
  0
LINE
  5
212
330
2
100
AcDbEntity
  8
0
100
AcDbLine
 10
-35.0
 20
0.0
 30
0.0
 11
-15.70156211871642
 21
0.0
 31
0.0
  0
ARC
  5
213
330
2
100
AcDbEntity
  8
0
100
AcDbCircle
 10
-15.70156211871642
 20
1.999999999999999
 30
0.0
 40
1.999999999999999
100
AcDbArc
 50
270.0
 51
308.6598082540901
  0
LINE
  5
214
330
2
100
AcDbEntity
  8
0
100
AcDbLine
 10
-14.45217202360757
 20
0.4382623811139397
 30
0.0
 11
-10.54782797639243
 21
3.561737618886061
 31
0.0
  0
ARC
  5
215
330
2
100
AcDbEntity
  8
0
100
AcDbCircle
 10
-9.298437881283576
 20
1.999999999999999
 30
0.0
 40
2.000000000000002
100
AcDbArc
 50
90.00000000000006
 51
128.6598082540901
  0
LINE
  5
216
330
2
100
AcDbEntity
  8
0
100
AcDbLine
 10
-9.298437881283578
 20
4.0
 30
0.0
 11
9.298437881283574
 21
4.0
 31
0.0
  0
ARC
  5
217
330
2
100
AcDbEntity
  8
0
100
AcDbCircle
 10
9.298437881283576
 20
1.999999999999999
 30
0.0
 40
2.000000000000001
100
AcDbArc
 50
51.34019174590993
 51
90.0
  0
LINE
  5
218
330
2
100
AcDbEntity
  8
0
100
AcDbLine
 10
10.54782797639243
 20
3.561737618886061
 30
0.0
 11
14.45217202360758
 21
0.4382623811139395
 31
0.0
  0
ARC
  5
219
330
2
100
AcDbEntity
  8
0
100
AcDbCircle
 10
15.70156211871642
 20
2.000000000000001
 30
0.0
 40
2.000000000000001
100
AcDbArc
 50
231.3401917459099
 51
270.0
  0
LINE
  5
21A
330
2
100
AcDbEntity
  8
0
100
AcDbLine
 10
15.70156211871642
 20
0.0
 30
0.0
 11
34.29843788128358
 21
0.0
 31
0.0
  0
ARC
  5
21B
330
2
100
AcDbEntity
  8
0
100
AcDbCircle
 10
34.29843788128358
 20
2.000000000000004
 30
0.0
 40
2.000000000000004
100
AcDbArc
 50
270.0
 51
308.6598082540901
  0
LINE
  5
21C
330
2
100
AcDbEntity
  8
0
100
AcDbLine
 10
35.54782797639243
 20
0.4382623811139392
 30
0.0
 11
39.45217202360757
 21
3.561737618886061
 31
0.0
  0
ARC
  5
21D
330
2
100
AcDbEntity
  8
0
100
AcDbCircle
 10
40.70156211871642
 20
1.999999999999996
 30
0.0
 40
2.000000000000004
100
AcDbArc
 50
90.0
 51
128.6598082540901
  0
LINE
  5
21E
330
2
100
AcDbEntity
  8
0
100
AcDbLine
 10
40.70156211871642
 20
4.0
 30
0.0
 11
59.29843788128358
 21
4.0
 31
0.0
  0
ARC
  5
21F
330
2
100
AcDbEntity
  8
0
100
AcDbCircle
 10
59.29843788128358
 20
1.999999999999996
 30
0.0
 40
2.000000000000004
100
AcDbArc
 50
51.34019174590993
 51
90.0
  0
LINE
  5
220
330
2
100
AcDbEntity
  8
0
100
AcDbLine
 10
60.54782797639243
 20
3.561737618886061
 30
0.0
 11
64.45217202360757
 21
0.4382623811139395
 31
0.0
  0
ARC
  5
221
330
2
100
AcDbEntity
  8
0
100
AcDbCircle
 10
65.70156211871642
 20
2.000000000000004
 30
0.0
 40
2.000000000000004
100
AcDbArc
 50
231.3401917459099
 51
270.0
  0
LINE
  5
222
330
2
100
AcDbEntity
  8
0
100
AcDbLine
 10
65.70156211871642
 20
0.0
 30
0.0
 11
84.29843788128358
 21
0.0
 31
0.0
  0
ARC
  5
223
330
2
100
AcDbEntity
  8
0
100
AcDbCircle
 10
84.29843788128358
 20
2.000000000000004
 30
0.0
 40
2.000000000000004
100
AcDbArc
 50
270.0
 51
308.6598082540901
  0
LINE
  5
224
330
2
100
AcDbEntity
  8
0
100
AcDbLine
 10
85.54782797639243
 20
0.4382623811139392
 30
0.0
 11
89.45217202360757
 21
3.561737618886061
 31
0.0
  0
ARC
  5
225
330
2
100
AcDbEntity
  8
0
100
AcDbCircle
 10
90.70156211871642
 20
1.999999999999996
 30
0.0
 40
2.000000000000004
100
AcDbArc
 50
90.0
 51
128.6598082540901
  0
LINE
  5
226
330
2
100
AcDbEntity
  8
0
100
AcDbLine
 10
90.70156211871642
 20
4.0
 30
0.0
 11
109.2984378812836
 21
4.0
 31
0.0
  0
ARC
  5
227
330
2
100
AcDbEntity
  8
0
100
AcDbCircle
 10
109.2984378812836
 20
1.999999999999996
 30
0.0
 40
2.000000000000004
100
AcDbArc
 50
51.34019174590993
 51
90.0
  0
LINE
  5
228
330
2
100
AcDbEntity
  8
0
100
AcDbLine
 10
110.5478279763924
 20
3.561737618886061
 30
0.0
 11
114.4521720236076
 21
0.4382623811139417
 31
0.0
  0
ARC
  5
229
330
2
100
AcDbEntity
  8
0
100
AcDbCircle
 10
115.7015621187164
 20
2.0
 30
0.0
 40
1.999999999999999
100
AcDbArc
 50
231.3401917459098
 51
270.0
  0
LINE
  5
22A
330
2
100
AcDbEntity
  8
0
100
AcDbLine
 10
115.7015621187164
 20
0.0
 30
0.0
 11
134.2984378812836
 21
0.0
 31
0.0
  0
ARC
  5
22B
330
2
100
AcDbEntity
  8
0
100
AcDbCircle
 10
134.2984378812836
 20
2.000000000000004
 30
0.0
 40
2.000000000000004
100
AcDbArc
 50
269.9999999999992
 51
308.6598082540894
  0
LINE
  5
22C
330
2
100
AcDbEntity
  8
0
100
AcDbLine
 10
135.5478279763924
 20
0.4382623811139392
 30
0.0
 11
139.4521720236076
 21
3.561737618886061
 31
0.0
  0
ARC
  5
22D
330
2
100
AcDbEntity
  8
0
100
AcDbCircle
 10
140.7015621187164
 20
1.999999999999996
 30
0.0
 40
1.999999999999987
100
AcDbArc
 50
89.99999999999919
 51
128.6598082540894
  0
LINE
  5
22E
330
2
100
AcDbEntity
  8
0
100
AcDbLine
 10
140.7015621187164
 20
4.0
 30
0.0
 11
159.2984378812836
 21
4.0
 31
0.0
  0
ARC
  5
22F
330
2
100
AcDbEntity
  8
0
100
AcDbCircle
 10
159.2984378812836
 20
1.999999999999996
 30
0.0
 40
2.000000000000004
100
AcDbArc
 50
51.34019174591057
 51
90.00000000000081
  0
LINE
  5
230
330
2
100
AcDbEntity
  8
0
100
AcDbLine
 10
160.5478279763924
 20
3.561737618886061
 30
0.0
 11
164.4521720236076
 21
0.4382623811139395
 31
0.0
  0
ARC
  5
231
330
2
100
AcDbEntity
  8
0
100
AcDbCircle
 10
165.7015621187164
 20
2.000000000000004
 30
0.0
 40
1.999999999999987
100
AcDbArc
 50
231.3401917459105
 51
270.0000000000008
  0
LINE
  5
232
330
2
100
AcDbEntity
  8
0
100
AcDbLine
 10
165.7015621187164
 20
0.0
 30
0.0
 11
184.2984378812836
 21
0.0
 31
0.0
  0
ARC
  5
233
330
2
100
AcDbEntity
  8
0
100
AcDbCircle
 10
184.2984378812836
 20
2.000000000000004
 30
0.0
 40
2.000000000000004
100
AcDbArc
 50
269.9999999999992
 51
308.6598082540894
  0
LINE
  5
234
330
2
100
AcDbEntity
  8
0
100
AcDbLine
 10
185.5478279763924
 20
0.4382623811139392
 30
0.0
 11
189.4521720236076
 21
3.561737618886061
 31
0.0
  0
ARC
  5
235
330
2
100
AcDbEntity
  8
0
100
AcDbCircle
 10
190.7015621187164
 20
1.999999999999996
 30
0.0
 40
1.999999999999987
100
AcDbArc
 50
89.99999999999919
 51
128.6598082540894
  0
LINE
  5
236
330
2
100
AcDbEntity
  8
0
100
AcDbLine
 10
190.7015621187164
 20
4.0
 30
0.0
 11
209.2984378812836
 21
4.0
 31
0.0
  0
ARC
  5
237
330
2
100
AcDbEntity
  8
0
100
AcDbCircle
 10
209.2984378812836
 20
1.999999999999996
 30
0.0
 40
2.000000000000004
100
AcDbArc
 50
51.34019174591057
 51
90.00000000000081
  0
LINE
  5
238
330
2
100
AcDbEntity
  8
0
100
AcDbLine
 10
210.5478279763924
 20
3.561737618886061
 30
0.0
 11
214.4521720236076
 21
0.4382623811139395
 31
0.0
  0
ARC
  5
239
330
2
100
AcDbEntity
  8
0
100
AcDbCircle
 10
215.7015621187165
 20
2.000000000000004
 30
0.0
 40
2.000000000000004
100
AcDbArc
 50
231.3401917459099
 51
270.0
  0
LINE
  5
23A
330
2
100
AcDbEntity
  8
0
100
AcDbLine
 10
215.7015621187165
 20
0.0
 30
0.0
 11
234.2984378812836
 21
0.0
 31
0.0
  0
ARC
  5
23B
330
2
100
AcDbEntity
  8
0
100
AcDbCircle
 10
234.2984378812836
 20
2.000000000000004
 30
0.0
 40
2.000000000000004
100
AcDbArc
 50
269.9999999999992
 51
308.6598082540894
  0
LINE
  5
23C
330
2
100
AcDbEntity
  8
0
100
AcDbLine
 10
235.5478279763924
 20
0.4382623811139392
 30
0.0
 11
239.4521720236076
 21
3.561737618886061
 31
0.0
  0
ARC
  5
23D
330
2
100
AcDbEntity
  8
0
100
AcDbCircle
 10
240.7015621187164
 20
1.999999999999996
 30
0.0
 40
1.999999999999987
100
AcDbArc
 50
89.99999999999919
 51
128.6598082540894
  0
LINE
  5
23E
330
2
100
AcDbEntity
  8
0
100
AcDbLine
 10
240.7015621187164
 20
4.0
 30
0.0
 11
259.2984378812836
 21
4.0
 31
0.0
  0
ARC
  5
23F
330
2
100
AcDbEntity
  8
0
100
AcDbCircle
 10
259.2984378812835
 20
2.000000000000036
 30
0.0
 40
1.999999999999964
100
AcDbArc
 50
51.34019174590858
 51
89.99999999999837
  0
LINE
  5
240
330
2
100
AcDbEntity
  8
0
100
AcDbLine
 10
260.5478279763924
 20
3.561737618886061
 30
0.0
 11
264.4521720236076
 21
0.4382623811139359
 31
0.0
  0
ARC
  5
241
330
2
100
AcDbEntity
  8
0
100
AcDbCircle
 10
265.7015621187165
 20
1.999999999999969
 30
0.0
 40
1.999999999999998
100
AcDbArc
 50
231.3401917459088
 51
269.9999999999984
  0
LINE
  5
242
330
2
100
AcDbEntity
  8
0
100
AcDbLine
 10
265.7015621187164
 20
0.0
 30
0.0
 11
284.2984378812836
 21
0.0
 31
0.0
  0
ARC
  5
243
330
2
100
AcDbEntity
  8
0
100
AcDbCircle
 10
284.2984378812835
 20
1.999999999999963
 30
0.0
 40
1.999999999999963
100
AcDbArc
 50
270.0000000000017
 51
308.6598082540914
  0
LINE
  5
244
330
2
100
AcDbEntity
  8
0
100
AcDbLine
 10
285.5478279763924
 20
0.4382623811139392
 30
0.0
 11
289.4521720236076
 21
3.561737618886064
 31
0.0
  0
ARC
  5
245
330
2
100
AcDbEntity
  8
0
100
AcDbCircle
 10
290.7015621187165
 20
2.000000000000031
 30
0.0
 40
1.999999999999998
100
AcDbArc
 50
90.00000000000162
 51
128.6598082540913
  0
LINE
  5
246
330
2
100
AcDbEntity
  8
0
100
AcDbLine
 10
290.7015621187164
 20
4.0
 30
0.0
 11
309.2984378812835
 21
4.0
 31
0.0
  0
ARC
  5
247
330
2
100
AcDbEntity
  8
0
100
AcDbCircle
 10
309.2984378812835
 20
2.000000000000036
 30
0.0
 40
1.999999999999964
100
AcDbArc
 50
51.34019174590985
 51
90.0
  0
LINE
  5
248
330
2
100
AcDbEntity
  8
0
100
AcDbLine
 10
310.5478279763923
 20
3.561737618886061
 30
0.0
 11
314.4521720236076
 21
0.4382623811139279
 31
0.0
  0
ARC
  5
249
330
2
100
AcDbEntity
  8
0
100
AcDbCircle
 10
315.7015621187165
 20
1.999999999999983
 30
0.0
 40
2.000000000000015
100
AcDbArc
 50
231.3401917459091
 51
269.9999999999984
  0
LINE
  5
24A
330
2
100
AcDbEntity
  8
0
100
AcDbLine
 10
315.7015621187164
 20
-0.0000000000000002
 30
0.0
 11
334.2984378812836
 21
0.0
 31
0.0
  0
ARC
  5
24B
330
2
100
AcDbEntity
  8
0
100
AcDbCircle
 10
334.2984378812835
 20
1.999999999999963
 30
0.0
 40
1.999999999999963
100
AcDbArc
 50
270.0000000000017
 51
308.6598082540914
  0
LINE
  5
24C
330
2
100
AcDbEntity
  8
0
100
AcDbLine
 10
335.5478279763924
 20
0.4382623811139392
 30
0.0
 11
339.4521720236076
 21
3.561737618886064
 31
0.0
  0
ARC
  5
24D
330
2
100
AcDbEntity
  8
0
100
AcDbCircle
 10
340.7015621187165
 20
2.000000000000031
 30
0.0
 40
1.999999999999998
100
AcDbArc
 50
90.00000000000162
 51
128.6598082540913
  0
LINE
  5
24E
330
2
100
AcDbEntity
  8
0
100
AcDbLine
 10
340.7015621187164
 20
4.0
 30
0.0
 11
359.2984378812836
 21
4.0
 31
0.0
  0
ARC
  5
24F
330
2
100
AcDbEntity
  8
0
100
AcDbCircle
 10
359.2984378812835
 20
2.000000000000036
 30
0.0
 40
1.999999999999964
100
AcDbArc
 50
51.34019174590858
 51
89.99999999999837
  0
LINE
  5
250
330
2
100
AcDbEntity
  8
0
100
AcDbLine
 10
360.5478279763924
 20
3.561737618886061
 30
0.0
 11
364.4521720236076
 21
0.4382623811139359
 31
0.0
  0
ARC
  5
251
330
2
100
AcDbEntity
  8
0
100
AcDbCircle
 10
365.7015621187165
 20
1.999999999999969
 30
0.0
 40
1.999999999999998
100
AcDbArc
 50
231.3401917459088
 51
269.9999999999984
  0
LINE
  5
252
330
2
100
AcDbEntity
  8
0
100
AcDbLine
 10
365.7015621187164
 20
0.0
 30
0.0
 11
384.2984378812836
 21
0.0
 31
0.0
  0
ARC
  5
253
330
2
100
AcDbEntity
  8
0
100
AcDbCircle
 10
384.2984378812835
 20
1.999999999999963
 30
0.0
 40
1.999999999999963
100
AcDbArc
 50
270.0000000000017
 51
308.6598082540914
  0
LINE
  5
254
330
2
100
AcDbEntity
  8
0
100
AcDbLine
 10
385.5478279763924
 20
0.4382623811139392
 30
0.0
 11
389.4521720236076
 21
3.561737618886064
 31
0.0
  0
ARC
  5
255
330
2
100
AcDbEntity
  8
0
100
AcDbCircle
 10
390.7015621187165
 20
2.000000000000031
 30
0.0
 40
1.999999999999998
100
AcDbArc
 50
90.00000000000162
 51
128.6598082540913
  0
LINE
  5
256
330
2
100
AcDbEntity
  8
0
100
AcDbLine
 10
390.7015621187164
 20
4.0
 30
0.0
 11
409.2984378812836
 21
4.0
 31
0.0
  0
ARC
  5
257
330
2
100
AcDbEntity
  8
0
100
AcDbCircle
 10
409.2984378812835
 20
2.000000000000036
 30
0.0
 40
1.999999999999964
100
AcDbArc
 50
51.34019174590858
 51
89.99999999999837
  0
LINE
  5
258
330
2
100
AcDbEntity
  8
0
100
AcDbLine
 10
410.5478279763924
 20
3.561737618886061
 30
0.0
 11
414.4521720236076
 21
0.4382623811139359
 31
0.0
  0
ARC
  5
259
330
2
100
AcDbEntity
  8
0
100
AcDbCircle
 10
415.7015621187165
 20
1.999999999999969
 30
0.0
 40
1.999999999999998
100
AcDbArc
 50
231.3401917459088
 51
269.9999999999984
  0
LINE
  5
25A
330
2
100
AcDbEntity
  8
0
100
AcDbLine
 10
415.7015621187164
 20
0.0
 30
0.0
 11
434.2984378812836
 21
0.0
 31
0.0
  0
ARC
  5
25B
330
2
100
AcDbEntity
  8
0
100
AcDbCircle
 10
434.2984378812835
 20
1.999999999999963
 30
0.0
 40
1.999999999999963
100
AcDbArc
 50
270.0000000000017
 51
308.6598082540914
  0
LINE
  5
25C
330
2
100
AcDbEntity
  8
0
100
AcDbLine
 10
435.5478279763924
 20
0.4382623811139392
 30
0.0
 11
439.4521720236077
 21
3.561737618886064
 31
0.0
  0
ARC
  5
25D
330
2
100
AcDbEntity
  8
0
100
AcDbCircle
 10
440.7015621187165
 20
2.000000000000031
 30
0.0
 40
1.999999999999962
100
AcDbArc
 50
90.0
 51
128.65980825409
  0
LINE
  5
25E
330
2
100
AcDbEntity
  8
0
100
AcDbLine
 10
440.7015621187165
 20
4.0
 30
0.0
 11
459.2984378812836
 21
4.0
 31
0.0
  0
ARC
  5
25F
330
2
100
AcDbEntity
  8
0
100
AcDbCircle
 10
459.2984378812836
 20
2.000000000000036
 30
0.0
 40
1.999999999999964
100
AcDbArc
 50
51.34019174590985
 51
90.0
  0
LINE
  5
260
330
2
100
AcDbEntity
  8
0
100
AcDbLine
 10
460.5478279763925
 20
3.561737618886061
 30
0.0
 11
464.4521720236076
 21
0.4382623811139434
 31
0.0
  0
ARC
  5
261
330
2
100
AcDbEntity
  8
0
100
AcDbCircle
 10
465.7015621187164
 20
2.000000000000036
 30
0.0
 40
2.000000000000044
100
AcDbArc
 50
231.3401917459098
 51
270.0
  0
LINE
  5
262
330
2
100
AcDbEntity
  8
0
100
AcDbLine
 10
465.7015621187164
 20
0.0
 30
0.0
 11
484.2984378812835
 21
0.0
 31
0.0
  0
ARC
  5
263
330
2
100
AcDbEntity
  8
0
100
AcDbCircle
 10
484.2984378812835
 20
1.999999999999963
 30
0.0
 40
1.999999999999963
100
AcDbArc
 50
270.0
 51
308.6598082540902
  0
LINE
  5
264
330
2
100
AcDbEntity
  8
0
100
AcDbLine
 10
485.5478279763923
 20
0.4382623811139392
 30
0.0
 11
489.4521720236076
 21
3.561737618886072
 31
0.0
  0
ARC
  5
265
330
2
100
AcDbEntity
  8
0
100
AcDbCircle
 10
490.7015621187164
 20
2.000000000000017
 30
0.0
 40
1.999999999999979
100
AcDbArc
 50
90.0
 51
128.6598082540896
  0
LINE
  5
266
330
2
100
AcDbEntity
  8
0
100
AcDbLine
 10
490.7015621187164
 20
4.0
 30
0.0
 11
509.2984378812836
 21
4.0
 31
0.0
  0
ARC
  5
267
330
2
100
AcDbEntity
  8
0
100
AcDbCircle
 10
509.2984378812835
 20
2.000000000000036
 30
0.0
 40
1.999999999999964
100
AcDbArc
 50
51.34019174590858
 51
89.99999999999837
  0
LINE
  5
268
330
2
100
AcDbEntity
  8
0
100
AcDbLine
 10
510.5478279763924
 20
3.561737618886061
 30
0.0
 11
514.4521720236076
 21
0.4382623811139359
 31
0.0
  0
ARC
  5
269
330
2
100
AcDbEntity
  8
0
100
AcDbCircle
 10
515.7015621187164
 20
2.00000000000005
 30
0.0
 40
2.000000000000061
100
AcDbArc
 50
231.3401917459102
 51
270.0
  0
LINE
  5
26A
330
2
100
AcDbEntity
  8
0
100
AcDbLine
 10
515.7015621187164
 20
0.0
 30
0.0
 11
534.2984378812836
 21
0.0
 31
0.0
  0
ARC
  5
26B
330
2
100
AcDbEntity
  8
0
100
AcDbCircle
 10
534.2984378812836
 20
2.000000000000044
 30
0.0
 40
2.000000000000044
100
AcDbArc
 50
270.0
 51
308.65980825409
  0
LINE
  5
26C
330
2
100
AcDbEntity
  8
0
100
AcDbLine
 10
535.5478279763925
 20
0.4382623811139392
 30
0.0
 11
539.4521720236076
 21
3.561737618886057
 31
0.0
  0
ARC
  5
26D
330
2
100
AcDbEntity
  8
0
100
AcDbCircle
 10
540.7015621187164
 20
1.999999999999964
 30
0.0
 40
2.000000000000044
100
AcDbArc
 50
90.0
 51
128.6598082540902
  0
LINE
  5
26E
330
2
100
AcDbEntity
  8
0
100
AcDbLine
 10
540.7015621187164
 20
4.0
 30
0.0
 11
559.2984378812836
 21
4.0
 31
0.0
  0
ARC
  5
26F
330
2
100
AcDbEntity
  8
0
100
AcDbCircle
 10
559.2984378812836
 20
1.999999999999956
 30
0.0
 40
2.000000000000044
100
AcDbArc
 50
51.34019174591002
 51
90.0
  0
LINE
  5
270
330
2
100
AcDbEntity
  8
0
100
AcDbLine
 10
560.5478279763925
 20
3.561737618886061
 30
0.0
 11
564.4521720236076
 21
0.4382623811139434
 31
0.0
  0
ARC
  5
271
330
2
100
AcDbEntity
  8
0
100
AcDbCircle
 10
565.7015621187164
 20
2.000000000000036
 30
0.0
 40
2.000000000000044
100
AcDbArc
 50
231.3401917459098
 51
270.0
  0
LINE
  5
272
330
2
100
AcDbEntity
  8
0
100
AcDbLine
 10
565.7015621187164
 20
0.0
 30
0.0
 11
584.2984378812836
 21
0.0
 31
0.0
  0
ARC
  5
273
330
2
100
AcDbEntity
  8
0
100
AcDbCircle
 10
584.2984378812836
 20
2.000000000000044
 30
0.0
 40
2.000000000000044
100
AcDbArc
 50
270.0
 51
308.65980825409
  0
LINE
  5
274
330
2
100
AcDbEntity
  8
0
100
AcDbLine
 10
585.5478279763925
 20
0.4382623811139392
 30
0.0
 11
589.4521720236076
 21
3.561737618886057
 31
0.0
  0
ARC
  5
275
330
2
100
AcDbEntity
  8
0
100
AcDbCircle
 10
590.7015621187164
 20
1.999999999999964
 30
0.0
 40
2.000000000000044
100
AcDbArc
 50
90.0
 51
128.6598082540902
  0
LINE
  5
276
330
2
100
AcDbEntity
  8
0
100
AcDbLine
 10
590.7015621187164
 20
4.0
 30
0.0
 11
609.2984378812836
 21
4.0
 31
0.0
  0
ARC
  5
277
330
2
100
AcDbEntity
  8
0
100
AcDbCircle
 10
609.2984378812836
 20
1.999999999999956
 30
0.0
 40
2.000000000000044
100
AcDbArc
 50
51.34019174591002
 51
90.0
  0
LINE
  5
278
330
2
100
AcDbEntity
  8
0
100
AcDbLine
 10
610.5478279763925
 20
3.561737618886061
 30
0.0
 11
614.4521720236076
 21
0.4382623811139434
 31
0.0
  0
ARC
  5
279
330
2
100
AcDbEntity
  8
0
100
AcDbCircle
 10
615.7015621187164
 20
2.000000000000036
 30
0.0
 40
2.000000000000044
100
AcDbArc
 50
231.3401917459098
 51
270.0
  0
LINE
  5
27A
330
2
100
AcDbEntity
  8
0
100
AcDbLine
 10
615.7015621187164
 20
0.0
 30
0.0
 11
634.2984378812836
 21
0.0
 31
0.0
  0
ARC
  5
27B
330
2
100
AcDbEntity
  8
0
100
AcDbCircle
 10
634.2984378812836
 20
2.000000000000044
 30
0.0
 40
2.000000000000044
100
AcDbArc
 50
270.0
 51
308.65980825409
  0
LINE
  5
27C
330
2
100
AcDbEntity
  8
0
100
AcDbLine
 10
635.5478279763925
 20
0.4382623811139392
 30
0.0
 11
639.4521720236076
 21
3.561737618886057
 31
0.0
  0
ARC
  5
27D
330
2
100
AcDbEntity
  8
0
100
AcDbCircle
 10
640.7015621187164
 20
1.999999999999964
 30
0.0
 40
2.000000000000044
100
AcDbArc
 50
90.0
 51
128.6598082540902
  0
LINE
  5
27E
330
2
100
AcDbEntity
  8
0
100
AcDbLine
 10
640.7015621187164
 20
4.0
 30
0.0
 11
659.2984378812837
 21
4.0
 31
0.0
  0
ARC
  5
27F
330
2
100
AcDbEntity
  8
0
100
AcDbCircle
 10
659.2984378812838
 20
1.999999999999956
 30
0.0
 40
2.000000000000044
100
AcDbArc
 50
51.34019174591257
 51
90.00000000000325
  0
LINE
  5
280
330
2
100
AcDbEntity
  8
0
100
AcDbLine
 10
660.5478279763926
 20
3.561737618886061
 30
0.0
 11
664.4521720236076
 21
0.438262381113959
 31
0.0
  0
ARC
  5
281
330
2
100
AcDbEntity
  8
0
100
AcDbCircle
 10
665.7015621187164
 20
2.000000000000008
 30
0.0
 40
2.00000000000001
100
AcDbArc
 50
231.340191745909
 51
270.0
  0
LINE
  5
282
330
2
100
AcDbEntity
  8
0
100
AcDbLine
 10
665.7015621187164
 20
-0.0000000000000002
 30
0.0
 11
684.2984378812836
 21
0.0
 31
0.0
  0
ARC
  5
283
330
2
100
AcDbEntity
  8
0
100
AcDbCircle
 10
684.2984378812836
 20
2.000000000000044
 30
0.0
 40
2.000000000000044
100
AcDbArc
 50
270.0
 51
308.65980825409
  0
LINE
  5
284
330
2
100
AcDbEntity
  8
0
100
AcDbLine
 10
685.5478279763925
 20
0.4382623811139392
 30
0.0
 11
689.4521720236076
 21
3.561737618886057
 31
0.0
  0
ARC
  5
285
330
2
100
AcDbEntity
  8
0
100
AcDbCircle
 10
690.7015621187164
 20
1.999999999999964
 30
0.0
 40
2.000000000000044
100
AcDbArc
 50
90.0
 51
128.6598082540902
  0
LINE
  5
286
330
2
100
AcDbEntity
  8
0
100
AcDbLine
 10
690.7015621187164
 20
4.0
 30
0.0
 11
709.2984378812837
 21
4.0
 31
0.0
  0
ARC
  5
287
330
2
100
AcDbEntity
  8
0
100
AcDbCircle
 10
709.2984378812838
 20
1.999999999999956
 30
0.0
 40
2.000000000000044
100
AcDbArc
 50
51.34019174591257
 51
90.00000000000325
  0
LINE
  5
288
330
2
100
AcDbEntity
  8
0
100
AcDbLine
 10
710.5478279763926
 20
3.561737618886061
 30
0.0
 11
714.4521720236076
 21
0.438262381113959
 31
0.0
  0
ARC
  5
289
330
2
100
AcDbEntity
  8
0
100
AcDbCircle
 10
715.7015621187164
 20
2.000000000000008
 30
0.0
 40
2.00000000000001
100
AcDbArc
 50
231.340191745909
 51
270.0
  0
LINE
  5
28A
330
2
100
AcDbEntity
  8
0
100
AcDbLine
 10
715.7015621187164
 20
-0.0000000000000002
 30
0.0
 11
734.2984378812836
 21
0.0
 31
0.0
  0
ARC
  5
28B
330
2
100
AcDbEntity
  8
0
100
AcDbCircle
 10
734.2984378812836
 20
2.000000000000044
 30
0.0
 40
2.000000000000044
100
AcDbArc
 50
270.0
 51
308.65980825409
  0
LINE
  5
28C
330
2
100
AcDbEntity
  8
0
100
AcDbLine
 10
735.5478279763925
 20
0.4382623811139392
 30
0.0
 11
739.4521720236076
 21
3.561737618886057
 31
0.0
  0
ARC
  5
28D
330
2
100
AcDbEntity
  8
0
100
AcDbCircle
 10
740.7015621187164
 20
1.999999999999964
 30
0.0
 40
2.000000000000044
100
AcDbArc
 50
90.0
 51
128.6598082540902
  0
LINE
  5
28E
330
2
100
AcDbEntity
  8
0
100
AcDbLine
 10
740.7015621187164
 20
4.0
 30
0.0
 11
759.2984378812836
 21
4.0
 31
0.0
  0
ARC
  5
28F
330
2
100
AcDbEntity
  8
0
100
AcDbCircle
 10
759.2984378812836
 20
1.999999999999956
 30
0.0
 40
2.000000000000044
100
AcDbArc
 50
51.34019174591002
 51
90.0
  0
LINE
  5
290
330
2
100
AcDbEntity
  8
0
100
AcDbLine
 10
760.5478279763925
 20
3.561737618886061
 30
0.0
 11
764.4521720236076
 21
0.4382623811139434
 31
0.0
  0
ARC
  5
291
330
2
100
AcDbEntity
  8
0
100
AcDbCircle
 10
765.7015621187164
 20
2.000000000000036
 30
0.0
 40
2.000000000000044
100
AcDbArc
 50
231.3401917459098
 51
270.0
  0
LINE
  5
292
330
2
100
AcDbEntity
  8
0
100
AcDbLine
 10
765.7015621187164
 20
0.0
 30
0.0
 11
784.2984378812836
 21
0.0
 31
0.0
  0
ARC
  5
293
330
2
100
AcDbEntity
  8
0
100
AcDbCircle
 10
784.2984378812836
 20
2.000000000000044
 30
0.0
 40
2.000000000000044
100
AcDbArc
 50
270.0
 51
308.65980825409
  0
LINE
  5
294
330
2
100
AcDbEntity
  8
0
100
AcDbLine
 10
785.5478279763925
 20
0.4382623811139392
 30
0.0
 11
789.4521720236076
 21
3.561737618886057
 31
0.0
  0
ARC
  5
295
330
2
100
AcDbEntity
  8
0
100
AcDbCircle
 10
790.7015621187164
 20
1.999999999999964
 30
0.0
 40
2.000000000000044
100
AcDbArc
 50
90.0
 51
128.6598082540902
  0
LINE
  5
296
330
2
100
AcDbEntity
  8
0
100
AcDbLine
 10
790.7015621187164
 20
4.0
 30
0.0
 11
809.2984378812836
 21
4.0
 31
0.0
  0
ARC
  5
297
330
2
100
AcDbEntity
  8
0
100
AcDbCircle
 10
809.2984378812836
 20
1.999999999999956
 30
0.0
 40
2.000000000000044
100
AcDbArc
 50
51.34019174591002
 51
90.0
  0
LINE
  5
298
330
2
100
AcDbEntity
  8
0
100
AcDbLine
 10
810.5478279763925
 20
3.561737618886061
 30
0.0
 11
814.4521720236076
 21
0.4382623811139434
 31
0.0
  0
ARC
  5
299
330
2
100
AcDbEntity
  8
0
100
AcDbCircle
 10
815.7015621187164
 20
2.000000000000036
 30
0.0
 40
2.000000000000044
100
AcDbArc
 50
231.3401917459098
 51
270.0
  0
LINE
  5
29A
330
2
100
AcDbEntity
  8
0
100
AcDbLine
 10
815.7015621187164
 20
0.0
 30
0.0
 11
834.2984378812836
 21
0.0
 31
0.0
  0
ARC
  5
29B
330
2
100
AcDbEntity
  8
0
100
AcDbCircle
 10
834.2984378812836
 20
2.000000000000044
 30
0.0
 40
2.000000000000044
100
AcDbArc
 50
270.0
 51
308.65980825409
  0
LINE
  5
29C
330
2
100
AcDbEntity
  8
0
100
AcDbLine
 10
835.5478279763925
 20
0.4382623811139392
 30
0.0
 11
839.4521720236076
 21
3.561737618886057
 31
0.0
  0
ARC
  5
29D
330
2
100
AcDbEntity
  8
0
100
AcDbCircle
 10
840.7015621187164
 20
1.999999999999964
 30
0.0
 40
2.000000000000044
100
AcDbArc
 50
90.0
 51
128.6598082540902
  0
LINE
  5
29E
330
2
100
AcDbEntity
  8
0
100
AcDbLine
 10
840.7015621187164
 20
4.0
 30
0.0
 11
859.2984378812836
 21
4.0
 31
0.0
  0
ARC
  5
29F
330
2
100
AcDbEntity
  8
0
100
AcDbCircle
 10
859.2984378812836
 20
1.999999999999956
 30
0.0
 40
2.000000000000044
100
AcDbArc
 50
51.34019174591002
 51
90.0
  0
LINE
  5
2A0
330
2
100
AcDbEntity
  8
0
100
AcDbLine
 10
860.5478279763925
 20
3.561737618886061
 30
0.0
 11
864.4521720236076
 21
0.4382623811139434
 31
0.0
  0
ARC
  5
2A1
330
2
100
AcDbEntity
  8
0
100
AcDbCircle
 10
865.7015621187164
 20
2.000000000000036
 30
0.0
 40
2.000000000000044
100
AcDbArc
 50
231.3401917459098
 51
270.0
  0
LINE
  5
2A2
330
2
100
AcDbEntity
  8
0
100
AcDbLine
 10
865.7015621187164
 20
0.0
 30
0.0
 11
885.0
 21
0.0
 31
0.0
  0
ENDSEC
  0
SECTION
  2
OBJECTS
  0
DICTIONARY
  5
9
330
0
100
AcDbDictionary
281
     1
  3
ACAD_COLOR
350
2E
  3
ACAD_GROUP
350
23
  3
ACAD_LAYOUT
350
D
  3
ACAD_MATERIAL
350
2D
  3
ACAD_MLINESTYLE
350
24
  3
ACAD_PLOTSETTINGS
350
25
  3
ACAD_PLOTSTYLENAME
350
8
  3
ACDBHEADERROUNDTRIPXREC
350
2A5
  3
AcDbVariableDictionary
350
29
  0
DICTIONARY
  5
2E
102
{ACAD_REACTORS
330
9
102
}
330
9
100
AcDbDictionary
281
     1
  0
DICTIONARY
  5
23
102
{ACAD_REACTORS
330
9
102
}
330
9
100
AcDbDictionary
281
     1
  0
DICTIONARY
  5
D
102
{ACAD_REACTORS
330
9
102
}
330
9
100
AcDbDictionary
281
     1
  3
Layout1
350
13
  3
Model
350
C
  0
DICTIONARY
  5
2D
102
{ACAD_REACTORS
330
9
102
}
330
9
100
AcDbDictionary
281
     1
  0
DICTIONARY
  5
24
102
{ACAD_REACTORS
330
9
102
}
330
9
100
AcDbDictionary
281
     1
  3
STANDARD
350
26
  0
DICTIONARY
  5
25
102
{ACAD_REACTORS
330
9
102
}
330
9
100
AcDbDictionary
281
     1
  0
ACDBDICTIONARYWDFLT
  5
8
102
{ACAD_REACTORS
330
9
102
}
330
9
100
AcDbDictionary
281
     1
  3
Normal
350
7
100
AcDbDictionaryWithDefault
340
7
  0
DICTIONARY
  5
2A5
102
{ACAD_REACTORS
330
9
102
}
330
9
100
AcDbDictionary
281
     1
  3
COLORDICT
350
2A6
  3
MATERIALDICT
350
2A7
  0
DICTIONARY
  5
29
102
{ACAD_REACTORS
330
9
102
}
330
9
100
AcDbDictionary
281
     1
  3
DIMASSOC
350
2B
  3
HIDETEXT
350
2A
  3
SORTENTS
350
2A4
  0
LAYOUT
  5
13
102
{ACAD_REACTORS
330
D
102
}
102
{ACAD_XDICTIONARY
360
36
102
}
330
D
100
AcDbPlotSettings
  1

  2
C:\PROGRAM FILES\ACAD2000\plotters\DesignJet 350C C4699A.pc3
  4

  6

 40
0.0
 41
0.0
 42
0.0
 43
0.0
 44
0.0
 45
0.0
 46
0.0
 47
0.0
 48
0.0
 49
0.0
140
0.0
141
0.0
142
1.0
143
1.0
 70
   688
 72
     0
 73
     0
 74
     5
  7
A3-SinglePen.ctb
 75
    16
147
1.0
148
0.0
149
0.0
100
AcDbLayout
  1
Layout1
 70
     0
 71
     1
 10
0.0
 20
0.0
 11
803.0
 21
574.0
 12
0.0
 22
0.0
 32
0.0
 14
0.0
 24
0.0
 34
0.0
 15
801.0
 25
575.0
 35
0.0
146
0.0
 13
0.0
 23
0.0
 33
0.0
 16
1.0
 26
0.0
 36
0.0
 17
0.0
 27
1.0
 37
0.0
 76
     0
330
E
  0
LAYOUT
  5
C
102
{ACAD_REACTORS
330
D
102
}
102
{ACAD_XDICTIONARY
360
34
102
}
330
D
100
AcDbPlotSettings
  1

  2
LANIER A3
  4
A3
  6

 40
6.805083274841309
 41
5.027085304260254
 42
7.228424072265625
 43
5.027069091796875
 44
296.9259948730469
 45
419.9466552734375
 46
0.0
 47
0.0
 48
103860.2873965428
 49
22494.00599669256
140
104751.6156148239
141
22868.60008005934
142
1.0
143
1.0
 70
 11936
 72
     1
 73
     1
 74
     4
  7
A3-SinglePen.ctb
 75
     0
147
1.0
148
-103860.2873965428
149
-22494.00599669256
100
AcDbLayout
  1
Model
 70
     1
 71
     0
 10
0.0
 20
0.0
 11
12.0
 21
9.0
 12
0.0
 22
0.0
 32
0.0
 14
0.0
 24
0.0
 34
0.0
 15
0.0
 25
0.0
 35
0.0
146
0.0
 13
0.0
 23
0.0
 33
0.0
 16
1.0
 26
0.0
 36
0.0
 17
0.0
 27
1.0
 37
0.0
 76
     0
330
2
  0
MLINESTYLE
  5
26
102
{ACAD_REACTORS
330
24
102
}
330
24
100
AcDbMlineStyle
  2
STANDARD
 70
     0
  3

 62
     0
 51
90.0
 52
90.0
 71
     2
 49
0.5
 62
   256
  6
BYLAYER
 49
-0.5
 62
   256
  6
BYLAYER
  0
ACDBPLACEHOLDER
  5
7
102
{ACAD_REACTORS
330
8
102
}
330
8
  0
XRECORD
  5
2A6
102
{ACAD_REACTORS
330
2A5
102
}
330
2A5
100
AcDbXrecord
280
     1
340
2E
  0
XRECORD
  5
2A7
102
{ACAD_REACTORS
330
2A5
102
}
330
2A5
100
AcDbXrecord
280
     1
340
2D
  0
DICTIONARYVAR
  5
2B
102
{ACAD_REACTORS
330
29
102
}
330
29
100
DictionaryVariables
280
     0
  1
2
  0
DICTIONARYVAR
  5
2A
102
{ACAD_REACTORS
330
29
102
}
330
29
100
DictionaryVariables
280
     0
  1
1
  0
DICTIONARYVAR
  5
2A4
102
{ACAD_REACTORS
330
29
102
}
330
29
100
DictionaryVariables
280
     0
  1
35
  0
DICTIONARY
  5
36
330
13
100
AcDbDictionary
280
     1
281
     1
  0
DICTIONARY
  5
34
330
C
100
AcDbDictionary
280
     1
281
     1
  0
ENDSEC
  0
EOF
