  0
SECTION
  2
HEADER
  9
$ACADVER
  1
AC1015
  9
$ACADMAINTVER
 70
     6
  9
$DWGCODEPAGE
  3
ANSI_1252
  9
$INSBASE
 10
0.0
 20
0.0
 30
0.0
  9
$EXTMIN
 10
1.0
 20
-16.50583997719525
 30
0.0
  9
$EXTMAX
 10
711.5637827175186
 20
27.83330683876726
 30
0.0
  9
$LIMMIN
 10
0.0
 20
0.0
  9
$LIMMAX
 10
12.0
 20
9.0
  9
$ORTHOMODE
 70
     0
  9
$REGENMODE
 70
     1
  9
$FILLMODE
 70
     1
  9
$QTEXTMODE
 70
     0
  9
$MIRRTEXT
 70
     1
  9
$LTSCALE
 40
1.0
  9
$ATTMODE
 70
     1
  9
$TEXTSIZE
 40
0.2
  9
$TRACEWID
 40
0.05
  9
$TEXTSTYLE
  7
STANDARD
  9
$CLAYER
  8
0
  9
$CELTYPE
  6
BYLAYER
  9
$CECOLOR
 62
     2
  9
$CELTSCALE
 40
1.0
  9
$DISPSILH
 70
     0
  9
$DIMSCALE
 40
1.0
  9
$DIMASZ
 40
0.18
  9
$DIMEXO
 40
0.0625
  9
$DIMDLI
 40
0.38
  9
$DIMRND
 40
0.0
  9
$DIMDLE
 40
0.0
  9
$DIMEXE
 40
0.18
  9
$DIMTP
 40
0.0
  9
$DIMTM
 40
0.0
  9
$DIMTXT
 40
0.18
  9
$DIMCEN
 40
0.09
  9
$DIMTSZ
 40
0.0
  9
$DIMTOL
 70
     0
  9
$DIMLIM
 70
     0
  9
$DIMTIH
 70
     1
  9
$DIMTOH
 70
     1
  9
$DIMSE1
 70
     0
  9
$DIMSE2
 70
     0
  9
$DIMTAD
 70
     0
  9
$DIMZIN
 70
     0
  9
$DIMBLK
  1

  9
$DIMASO
 70
     1
  9
$DIMSHO
 70
     1
  9
$DIMPOST
  1

  9
$DIMAPOST
  1

  9
$DIMALT
 70
     0
  9
$DIMALTD
 70
     2
  9
$DIMALTF
 40
25.4
  9
$DIMLFAC
 40
1.0
  9
$DIMTOFL
 70
     0
  9
$DIMTVP
 40
0.0
  9
$DIMTIX
 70
     0
  9
$DIMSOXD
 70
     0
  9
$DIMSAH
 70
     0
  9
$DIMBLK1
  1

  9
$DIMBLK2
  1

  9
$DIMSTYLE
  2
STANDARD
  9
$DIMCLRD
 70
     0
  9
$DIMCLRE
 70
     0
  9
$DIMCLRT
 70
     0
  9
$DIMTFAC
 40
1.0
  9
$DIMGAP
 40
0.09
  9
$DIMJUST
 70
     0
  9
$DIMSD1
 70
     0
  9
$DIMSD2
 70
     0
  9
$DIMTOLJ
 70
     1
  9
$DIMTZIN
 70
     0
  9
$DIMALTZ
 70
     0
  9
$DIMALTTZ
 70
     0
  9
$DIMUPT
 70
     0
  9
$DIMDEC
 70
     4
  9
$DIMTDEC
 70
     4
  9
$DIMALTU
 70
     2
  9
$DIMALTTD
 70
     2
  9
$DIMTXSTY
  7
STANDARD
  9
$DIMAUNIT
 70
     0
  9
$DIMADEC
 70
     0
  9
$DIMALTRND
 40
0.0
  9
$DIMAZIN
 70
     0
  9
$DIMDSEP
 70
    46
  9
$DIMATFIT
 70
     3
  9
$DIMFRAC
 70
     0
  9
$DIMLDRBLK
  1

  9
$DIMLUNIT
 70
     2
  9
$DIMLWD
 70
    -2
  9
$DIMLWE
 70
    -2
  9
$DIMTMOVE
 70
     0
  9
$LUNITS
 70
     2
  9
$LUPREC
 70
     4
  9
$SKETCHINC
 40
0.1
  9
$FILLETRAD
 40
2.0
  9
$AUNITS
 70
     0
  9
$AUPREC
 70
     0
  9
$MENU
  1
.
  9
$ELEVATION
 40
0.0
  9
$PELEVATION
 40
0.0
  9
$THICKNESS
 40
0.0
  9
$LIMCHECK
 70
     0
  9
$CHAMFERA
 40
0.5
  9
$CHAMFERB
 40
0.5
  9
$CHAMFERC
 40
1.0
  9
$CHAMFERD
 40
0.0
  9
$SKPOLY
 70
     0
  9
$TDCREATE
 40
2452380.537378472
  9
$TDUCREATE
 40
2452380.099878472
  9
$TDUPDATE
 40
2453761.611534826
  9
$TDUUPDATE
 40
2453761.174034826
  9
$TDINDWG
 40
0.1865100347
  9
$TDUSRTIMER
 40
0.1864749074
  9
$USRTIMER
 70
     1
  9
$ANGBASE
 50
0.0
  9
$ANGDIR
 70
     0
  9
$PDMODE
 70
     0
  9
$PDSIZE
 40
0.0
  9
$PLINEWID
 40
0.0
  9
$SPLFRAME
 70
     0
  9
$SPLINETYPE
 70
     6
  9
$SPLINESEGS
 70
     8
  9
$HANDSEED
  5
A7F
  9
$SURFTAB1
 70
     6
  9
$SURFTAB2
 70
     6
  9
$SURFTYPE
 70
     6
  9
$SURFU
 70
     6
  9
$SURFV
 70
     6
  9
$UCSBASE
  2

  9
$UCSNAME
  2

  9
$UCSORG
 10
0.0
 20
0.0
 30
0.0
  9
$UCSXDIR
 10
1.0
 20
0.0
 30
0.0
  9
$UCSYDIR
 10
0.0
 20
1.0
 30
0.0
  9
$UCSORTHOREF
  2

  9
$UCSORTHOVIEW
 70
     0
  9
$UCSORGTOP
 10
0.0
 20
0.0
 30
0.0
  9
$UCSORGBOTTOM
 10
0.0
 20
0.0
 30
0.0
  9
$UCSORGLEFT
 10
0.0
 20
0.0
 30
0.0
  9
$UCSORGRIGHT
 10
0.0
 20
0.0
 30
0.0
  9
$UCSORGFRONT
 10
0.0
 20
0.0
 30
0.0
  9
$UCSORGBACK
 10
0.0
 20
0.0
 30
0.0
  9
$PUCSBASE
  2

  9
$PUCSNAME
  2

  9
$PUCSORG
 10
0.0
 20
0.0
 30
0.0
  9
$PUCSXDIR
 10
1.0
 20
0.0
 30
0.0
  9
$PUCSYDIR
 10
0.0
 20
1.0
 30
0.0
  9
$PUCSORTHOREF
  2

  9
$PUCSORTHOVIEW
 70
     0
  9
$PUCSORGTOP
 10
0.0
 20
0.0
 30
0.0
  9
$PUCSORGBOTTOM
 10
0.0
 20
0.0
 30
0.0
  9
$PUCSORGLEFT
 10
0.0
 20
0.0
 30
0.0
  9
$PUCSORGRIGHT
 10
0.0
 20
0.0
 30
0.0
  9
$PUCSORGFRONT
 10
0.0
 20
0.0
 30
0.0
  9
$PUCSORGBACK
 10
0.0
 20
0.0
 30
0.0
  9
$USERI1
 70
     0
  9
$USERI2
 70
     0
  9
$USERI3
 70
     0
  9
$USERI4
 70
     0
  9
$USERI5
 70
     0
  9
$USERR1
 40
0.0
  9
$USERR2
 40
0.0
  9
$USERR3
 40
0.0
  9
$USERR4
 40
0.0
  9
$USERR5
 40
0.0
  9
$WORLDVIEW
 70
     1
  9
$SHADEDGE
 70
     3
  9
$SHADEDIF
 70
    70
  9
$TILEMODE
 70
     1
  9
$MAXACTVP
 70
    48
  9
$PINSBASE
 10
0.0
 20
0.0
 30
0.0
  9
$PLIMCHECK
 70
     0
  9
$PEXTMIN
 10
1.000000000000000E+20
 20
1.000000000000000E+20
 30
1.000000000000000E+20
  9
$PEXTMAX
 10
-1.000000000000000E+20
 20
-1.000000000000000E+20
 30
-1.000000000000000E+20
  9
$PLIMMIN
 10
0.0
 20
0.0
  9
$PLIMMAX
 10
12.0
 20
9.0
  9
$UNITMODE
 70
     0
  9
$VISRETAIN
 70
     1
  9
$PLINEGEN
 70
     0
  9
$PSLTSCALE
 70
     1
  9
$TREEDEPTH
 70
  3020
  9
$CMLSTYLE
  2
STANDARD
  9
$CMLJUST
 70
     0
  9
$CMLSCALE
 40
1.0
  9
$PROXYGRAPHICS
 70
     1
  9
$MEASUREMENT
 70
     0
  9
$CELWEIGHT
370
     0
  9
$ENDCAPS
280
     0
  9
$JOINSTYLE
280
     0
  9
$LWDISPLAY
290
     0
  9
$INSUNITS
 70
     4
  9
$HYPERLINKBASE
  1

  9
$STYLESHEET
  1

  9
$XEDIT
290
     1
  9
$CEPSNTYPE
380
     0
  9
$PSTYLEMODE
290
     1
  9
$FINGERPRINTGUID
  2
{FDEAD576-A652-11D2-9A35-0060089B3A3F}
  9
$VERSIONGUID
  2
{07C13FCF-41DD-4D53-824A-5DC2D5BFB3A3}
  9
$EXTNAMES
290
     1
  9
$PSVPSCALE
 40
0.0
  9
$OLESTARTUP
290
     0
  0
ENDSEC
  0
SECTION
  2
CLASSES
  0
CLASS
  1
ACDBDICTIONARYWDFLT
  2
AcDbDictionaryWithDefault
  3
AutoCAD 2000
 90
        0
280
     0
281
     0
  0
CLASS
  1
ACDBPLACEHOLDER
  2
AcDbPlaceHolder
  3
AutoCAD 2000
 90
        0
280
     0
281
     0
  0
CLASS
  1
LAYOUT
  2
AcDbLayout
  3
AutoCAD 2000
 90
        0
280
     0
281
     0
  0
CLASS
  1
LONG_TRANSACTION
  2
AcDbLongTransaction
  3
AutoCAD 2000
 90
    32768
280
     1
281
     0
  0
CLASS
  1
LWPOLYLINE
  2
AcDbPolyline
  3
AutoCAD 2000
 90
    32768
280
     0
281
     1
  0
CLASS
  1
HATCH
  2
AcDbHatch
  3
AutoCAD 2000
 90
    32768
280
     0
281
     1
  0
CLASS
  1
XRECORD
  2
AcDbXrecord
  3
AutoCAD 2000
 90
    32768
280
     0
281
     0
  0
CLASS
  1
LONG_TRANSACTION
  2
AcDbLongTransaction
  3
AutoCAD 2000
 90
    32768
280
     1
281
     0
  0
CLASS
  1
LWPOLYLINE
  2
AcDbPolyline
  3
AutoCAD 2000
 90
    32768
280
     0
281
     1
  0
CLASS
  1
HATCH
  2
AcDbHatch
  3
AutoCAD 2000
 90
    32768
280
     0
281
     1
  0
CLASS
  1
XRECORD
  2
AcDbXrecord
  3
AutoCAD 2000
 90
    32768
280
     0
281
     0
  0
ENDSEC
  0
SECTION
  2
TABLES
  0
TABLE
  2
VPORT
  5
8
330
0
100
AcDbSymbolTable
 70
     2
  0
VPORT
  5
A5E
330
8
100
AcDbSymbolTableRecord
100
AcDbViewportTableRecord
  2
*Active
 70
     0
 10
0.0
 20
0.0
 11
1.0
 21
1.0
 12
428.2362659259744
 22
69.48444993197728
 13
0.0
 23
0.0
 14
0.5
 24
0.5
 15
0.5
 25
0.5
 16
0.0
 26
0.0
 36
1.0
 17
0.0
 27
0.0
 37
0.0
 40
873.0219112784215
 41
1.567708333333333
 42
50.0
 43
0.0
 44
0.0
 50
0.0
 51
0.0
 71
     0
 72
   100
 73
     1
 74
     3
 75
     0
 76
     0
 77
     0
 78
     0
281
     0
 65
     1
110
0.0
120
0.0
130
0.0
111
1.0
121
0.0
131
0.0
112
0.0
122
1.0
132
0.0
 79
     0
146
0.0
  0
ENDTAB
  0
TABLE
  2
LTYPE
  5
5
330
0
100
AcDbSymbolTable
 70
     1
  0
LTYPE
  5
14
330
5
100
AcDbSymbolTableRecord
100
AcDbLinetypeTableRecord
  2
BYBLOCK
 70
     0
  3

 72
    65
 73
     0
 40
0.0
  0
LTYPE
  5
15
330
5
100
AcDbSymbolTableRecord
100
AcDbLinetypeTableRecord
  2
BYLAYER
 70
     0
  3

 72
    65
 73
     0
 40
0.0
  0
LTYPE
  5
16
330
5
100
AcDbSymbolTableRecord
100
AcDbLinetypeTableRecord
  2
CONTINUOUS
 70
     0
  3
Solid line
 72
    65
 73
     0
 40
0.0
  0
ENDTAB
  0
TABLE
  2
LAYER
  5
2
330
0
100
AcDbSymbolTable
 70
     1
  0
LAYER
  5
10
330
2
100
AcDbSymbolTableRecord
100
AcDbLayerTableRecord
  2
0
 70
     0
 62
     7
  6
CONTINUOUS
370
    -3
390
A34
  0
ENDTAB
  0
TABLE
  2
STYLE
  5
3
330
0
100
AcDbSymbolTable
 70
     1
  0
STYLE
  5
11
330
3
100
AcDbSymbolTableRecord
100
AcDbTextStyleTableRecord
  2
STANDARD
 70
     0
 40
0.0
 41
1.0
 50
0.0
 71
     0
 42
0.2
  3
txt
  4

  0
ENDTAB
  0
TABLE
  2
VIEW
  5
6
330
0
100
AcDbSymbolTable
 70
     0
  0
ENDTAB
  0
TABLE
  2
UCS
  5
7
330
0
100
AcDbSymbolTable
 70
     0
  0
ENDTAB
  0
TABLE
  2
APPID
  5
9
330
0
100
AcDbSymbolTable
 70
     3
  0
APPID
  5
12
330
9
100
AcDbSymbolTableRecord
100
AcDbRegAppTableRecord
  2
ACAD
 70
     0
  0
APPID
  5
A8
330
9
100
AcDbSymbolTableRecord
100
AcDbRegAppTableRecord
  2
FIELDERS_2000
 70
     0
  0
APPID
  5
544
330
9
100
AcDbSymbolTableRecord
100
AcDbRegAppTableRecord
  2
CONTENTBLOCKICON
 70
     0
  0
ENDTAB
  0
TABLE
  2
DIMSTYLE
  5
A
330
0
100
AcDbSymbolTable
 70
     1
100
AcDbDimStyleTable
 71
     0
  0
DIMSTYLE
105
27
330
A
100
AcDbSymbolTableRecord
100
AcDbDimStyleTableRecord
  2
STANDARD
 70
     0
340
11
  0
ENDTAB
  0
TABLE
  2
BLOCK_RECORD
  5
1
330
0
100
AcDbSymbolTable
 70
     1
  0
BLOCK_RECORD
  5
1F
330
1
100
AcDbSymbolTableRecord
100
AcDbBlockTableRecord
  2
*MODEL_SPACE
340
A35
  0
BLOCK_RECORD
  5
1B
330
1
100
AcDbSymbolTableRecord
100
AcDbBlockTableRecord
  2
*PAPER_SPACE
340
A36
  0
BLOCK_RECORD
  5
971
330
1
100
AcDbSymbolTableRecord
100
AcDbBlockTableRecord
  2
BHPKLIP700
340
0
310
28000000200000002000000001000800000000000004000000000000000000000000000000000000000000004000000080000000FF000000002000004020000080200000FF200000004000004040000080400000FF400000006000004060000080600000FF600000008000004080000080800000FF80000000A0000040A000
310
0080A00000FFA0000000C0000040C0000080C00000FFC0000000FF000040FF000080FF0000FFFF0000000020004000200080002000FF002000002020004020200080202000FF202000004020004040200080402000FF402000006020004060200080602000FF602000008020004080200080802000FF80200000A0200040A0
310
200080A02000FFA0200000C0200040C0200080C02000FFC0200000FF200040FF200080FF2000FFFF2000000040004000400080004000FF004000002040004020400080204000FF204000004040004040400080404000FF404000006040004060400080604000FF604000008040004080400080804000FF80400000A0400040
310
A0400080A04000FFA0400000C0400040C0400080C04000FFC0400000FF400040FF400080FF4000FFFF4000000060004000600080006000FF006000002060004020600080206000FF206000004060004040600080406000FF406000006060004060600080606000FF606000008060004080600080806000FF80600000A06000
310
40A0600080A06000FFA0600000C0600040C0600080C06000FFC0600000FF600040FF600080FF6000FFFF6000000080004000800080008000FF008000002080004020800080208000FF208000004080004040800080408000FF408000006080004060800080608000FF608000008080004080800080808000FF80800000A080
310
0040A0800080A08000FFA0800000C0800040C0800080C08000FFC0800000FF800040FF800080FF8000FFFF80000000A0004000A0008000A000FF00A0000020A0004020A0008020A000FF20A0000040A0004040A0008040A000FF40A0000060A0004060A0008060A000FF60A0000080A0004080A0008080A000FF80A00000A0
310
A00040A0A00080A0A000FFA0A00000C0A00040C0A00080C0A000FFC0A00000FFA00040FFA00080FFA000FFFFA0000000C0004000C0008000C000FF00C0000020C0004020C0008020C000FF20C0000040C0004040C0008040C000FF40C0000060C0004060C0008060C000FF60C0000080C0004080C0008080C000FF80C00000
310
A0C00040A0C00080A0C000FFA0C00000C0C00040C0C00080C0C000FFC0C00000FFC00040FFC00080FFC000FFFFC0000000FF004000FF008000FF00FF00FF000020FF004020FF008020FF00FF20FF000040FF004040FF008040FF00FF40FF000060FF004060FF008060FF00FF60FF000080FF004080FF008080FF00FF80FF00
310
00A0FF0040A0FF0080A0FF00FFA0FF0000C0FF0040C0FF0080C0FF00FFC0FF0000FFFF0040FFFF0080FFFF00FFFFFF0000000000000000000000000000000000000000000000000000000000000000000000000000000000000000000000000000000000000000000000000000000000000000000000000000000000000000
310
00000000000000000000000000000000000000000000000000000000000000000000000000000000000000000000000000000000000000000000000000000000000000000000000000000000000000000000000000000000000000000000000000000000000000000000000000000000000000000000000000000000000000
310
00000000000000000000000000000000000000000000000000000000000000000000000000000000000000000000000000000000000000000000000000000000000000000000000000000000000000000000000000000000000000000000000000000000000000000000000000000000000000000000000000000000000000
310
00000000000000000000000000000000000000000000000000000000000000000000000000000000000000000000000000000000000000000000000000000000000000000000000000000000000000000000000000000000000000000000000000000000000000000000000000000000000000000000000000000000000000
310
000000000000000000000000000000000000000000FFFFFFFFFFFFFFFFFFFFFFFFFFFFFFFFFFFFFFFFFFFFFFFFFFFFFFFFFFFF0000FFFFFF00000000000000FFFF00000000000000FFFF00000000000000FFFF0000000000000000000000000000000000000000000000000000000000000000000000000000000000000000
310
00000000000000000000000000000000000000000000000000000000000000000000000000000000000000000000000000000000000000000000000000000000000000000000000000000000000000000000000000000000000000000000000000000000000000000000000000000000000000000000000000000000000000
310
00000000000000000000000000000000000000000000000000000000000000000000000000000000000000000000000000000000000000000000000000000000000000000000000000000000000000000000000000000000000000000000000000000000000000000000000000000000000000000000000000000000000000
310
00000000000000000000000000000000000000000000000000000000000000000000000000000000000000000000000000000000000000000000000000000000000000000000000000000000000000000000000000000000000000000000000000000000000000000000000000000000000000000000000000000000000000
310
0000000000000000000000000000000000000000000000000000000000000000000000000000000000000000000000000000000000000000
102
{BLKREFS
331
9D3
102
}
1001
ACAD
1000
DesignCenter Data
1002
{
1070
     1
1070
     1
1002
}
  0
ENDTAB
  0
ENDSEC
  0
SECTION
  2
BLOCKS
  0
BLOCK
  5
20
330
1F
100
AcDbEntity
  8
0
100
AcDbBlockBegin
  2
*MODEL_SPACE
 70
     0
 10
0.0
 20
0.0
 30
0.0
  3
*MODEL_SPACE
  1

  0
ENDBLK
  5
21
330
1F
100
AcDbEntity
  8
0
100
AcDbBlockEnd
  0
BLOCK
  5
1C
330
1B
100
AcDbEntity
 67
     1
  8
0
100
AcDbBlockBegin
  2
*PAPER_SPACE
 70
     0
 10
0.0
 20
0.0
 30
0.0
  3
*PAPER_SPACE
  1

  0
ENDBLK
  5
1D
330
1B
100
AcDbEntity
 67
     1
  8
0
100
AcDbBlockEnd
  0
BLOCK
  5
972
330
971
100
AcDbEntity
  8
0
 62
     2
100
AcDbBlockBegin
  2
BHPKLIP700
 70
     0
 10
0.0
 20
0.0
 30
0.0
  3
BHPKLIP700
  1

  0
LINE
  5
974
330
971
100
AcDbEntity
  8
0
100
AcDbLine
 10
282.5983281966396
 20
-16.98734303722816
 30
0.0
 11
458.6567041945548
 21
-16.98734303722816
 31
0.0
  0
LINE
  5
975
330
971
100
AcDbEntity
  8
0
100
AcDbLine
 10
270.4070173914976
 20
7.975289292325446
 30
0.0
 11
267.9201967478044
 21
19.98617282515439
 31
0.0
  0
LINE
  5
976
330
971
100
AcDbEntity
  8
0
100
AcDbLine
 10
236.1801255483688
 20
7.975289292325407
 30
0.0
 11
238.6669461920619
 21
19.98617282515437
 31
0.0
  0
LINE
  5
977
330
971
100
AcDbEntity
  8
0
100
AcDbLine
 10
236.180125548369
 20
7.975290937868787
 30
0.0
 11
238.6669461920623
 21
19.98617447069771
 31
0.0
  0
LINE
  5
978
330
971
100
AcDbEntity
  8
0
100
AcDbLine
 10
270.4070173914976
 20
7.975290937868777
 30
0.0
 11
267.9201967478044
 21
19.98617447069771
 31
0.0
  0
LINE
  5
979
330
971
100
AcDbEntity
  8
0
100
AcDbLine
 10
1.566934237443745
 20
7.975290937868787
 30
0.0
 11
4.053754881136995
 21
19.98617447069771
 31
0.0
  0
LINE
  5
97A
330
971
100
AcDbEntity
  8
0
100
AcDbLine
 10
35.79382608057228
 20
7.975290937868777
 30
0.0
 11
33.30700543687905
 21
19.98617447069771
 31
0.0
  0
LINE
  5
97B
330
971
100
AcDbEntity
  8
0
100
AcDbLine
 10
47.98513688571435
 20
-16.98734303722816
 30
0.0
 11
224.0435714699331
 21
-16.98734303722816
 31
0.0
  0
LINE
  5
97C
330
971
100
AcDbEntity
  8
0
100
AcDbLine
 10
41.68038015900791
 20
-3.987341391684783
 30
0.0
 11
44.64145575932646
 21
-14.68441221741528
 31
0.0
  0
ARC
  5
97D
330
971
100
AcDbEntity
  8
0
100
AcDbCircle
 10
47.93037981411778
 20
-13.48734139168479
 30
0.0
 40
3.5
100
AcDbArc
 50
200.0000056459259
 51
270.0000056459293
  0
ARC
  5
97E
330
971
100
AcDbEntity
  8
0
100
AcDbCircle
 10
2.54616536475376
 20
7.772543806428747
 30
0.0
 40
1.0
100
AcDbArc
 50
168.3023500403638
 51
251.8942336554501
  0
LINE
  5
97F
330
971
100
AcDbEntity
  8
0
100
AcDbLine
 10
4.319619840991862
 20
3.987341391684776
 30
0.0
 11
0.0
 21
0.0
 31
0.0
  0
ARC
  5
980
330
971
100
AcDbEntity
  8
0
100
AcDbCircle
 10
3.302199686892293
 20
5.089546558626011
 30
0.0
 40
1.5
100
AcDbArc
 50
312.7093899573628
 51
43.15238973400738
  0
LINE
  5
981
330
971
100
AcDbEntity
  8
0
100
AcDbLine
 10
4.39650549310241
 20
6.115458251948007
 30
0.0
 11
2.235393275179175
 21
6.822059346618142
 31
0.0
  0
ARC
  5
982
330
971
100
AcDbEntity
  8
0
100
AcDbCircle
 10
34.81459495326229
 20
7.772543806428736
 30
0.0
 40
1.0
100
AcDbArc
 50
288.1057663445498
 51
11.69764995963616
  0
LINE
  5
983
330
971
100
AcDbEntity
  8
0
100
AcDbLine
 10
33.04114047702419
 20
3.987341391684765
 30
0.0
 11
41.68038015900791
 21
-3.987341391684783
 31
0.0
  0
ARC
  5
984
330
971
100
AcDbEntity
  8
0
100
AcDbCircle
 10
34.05856063112373
 20
5.089546558626005
 30
0.0
 40
1.5
100
AcDbArc
 50
136.8476102659924
 51
227.2906100426371
  0
LINE
  5
985
330
971
100
AcDbEntity
  8
0
100
AcDbLine
 10
32.96425482491363
 20
6.115458251947996
 30
0.0
 11
35.12536704283687
 21
6.822059346618132
 31
0.0
  0
LINE
  5
986
330
971
100
AcDbEntity
  8
0
100
AcDbLine
 10
276.2935714699332
 20
-3.987343037228118
 30
0.0
 11
279.2546470702518
 21
-14.68441386295861
 31
0.0
  0
LINE
  5
987
330
971
100
AcDbEntity
  8
0
100
AcDbLine
 10
230.2935714699331
 20
-3.987343037228171
 30
0.0
 11
227.3324958696146
 21
-14.68441386295866
 31
0.0
  0
LINE
  5
988
330
971
100
AcDbEntity
  8
0
100
AcDbLine
 10
276.2935714699332
 20
-3.987341391684783
 30
0.0
 11
279.2546470702518
 21
-14.68441221741528
 31
0.0
  0
ARC
  5
989
330
971
100
AcDbEntity
  8
0
100
AcDbCircle
 10
224.0435718148232
 20
-13.48734303722817
 30
0.0
 40
3.5
100
AcDbArc
 50
269.9999943540723
 51
339.9999943540738
  0
ARC
  5
98A
330
971
100
AcDbEntity
  8
0
100
AcDbCircle
 10
282.5435711250431
 20
-13.48734303722812
 30
0.0
 40
3.5
100
AcDbArc
 50
200.0000056459258
 51
270.0000056459293
  0
ARC
  5
98B
330
971
100
AcDbEntity
  8
0
100
AcDbCircle
 10
282.5435711250431
 20
-13.48734139168479
 30
0.0
 40
3.5
100
AcDbArc
 50
200.0000056459258
 51
270.0000056459293
  0
ARC
  5
98C
330
971
100
AcDbEntity
  8
0
100
AcDbCircle
 10
237.1593566756785
 20
7.772542160885367
 30
0.0
 40
1.0
100
AcDbArc
 50
168.3023500403638
 51
251.8942336554518
  0
ARC
  5
98D
330
971
100
AcDbEntity
  8
0
100
AcDbCircle
 10
237.1593566756791
 20
7.772543806428747
 30
0.0
 40
1.0
100
AcDbArc
 50
168.3023500403638
 51
251.8942336554501
  0
LINE
  5
98E
330
971
100
AcDbEntity
  8
0
100
AcDbLine
 10
238.9328111519169
 20
3.987339746141396
 30
0.0
 11
230.2935714699331
 21
-3.987343037228171
 31
0.0
  0
LINE
  5
98F
330
971
100
AcDbEntity
  8
0
100
AcDbLine
 10
238.9328111519172
 20
3.987341391684776
 30
0.0
 11
234.6131913109253
 21
0.0
 31
0.0
  0
ARC
  5
990
330
971
100
AcDbEntity
  8
0
100
AcDbCircle
 10
237.9153909978171
 20
5.089544913082632
 30
0.0
 40
1.5
100
AcDbArc
 50
312.7093899573608
 51
43.15238973400528
  0
ARC
  5
991
330
971
100
AcDbEntity
  8
0
100
AcDbCircle
 10
237.9153909978175
 20
5.089546558626011
 30
0.0
 40
1.5
100
AcDbArc
 50
312.7093899573628
 51
43.15238973400759
  0
LINE
  5
992
330
971
100
AcDbEntity
  8
0
100
AcDbLine
 10
239.0096968040274
 20
6.115456606404633
 30
0.0
 11
236.848584586104
 21
6.822057701074762
 31
0.0
  0
LINE
  5
993
330
971
100
AcDbEntity
  8
0
100
AcDbLine
 10
239.0096968040275
 20
6.115458251948007
 30
0.0
 11
236.8485845861044
 21
6.822059346618142
 31
0.0
  0
ARC
  5
994
330
971
100
AcDbEntity
  8
0
100
AcDbCircle
 10
269.4277862641876
 20
7.772542160885402
 30
0.0
 40
1.0
100
AcDbArc
 50
288.1057663445498
 51
11.69764995963616
  0
ARC
  5
995
330
971
100
AcDbEntity
  8
0
100
AcDbCircle
 10
269.4277862641876
 20
7.772543806428736
 30
0.0
 40
1.0
100
AcDbArc
 50
288.1057663445498
 51
11.69764995963616
  0
LINE
  5
996
330
971
100
AcDbEntity
  8
0
100
AcDbLine
 10
267.6543317879496
 20
3.987339746141433
 30
0.0
 11
276.2935714699332
 21
-3.987343037228118
 31
0.0
  0
LINE
  5
997
330
971
100
AcDbEntity
  8
0
100
AcDbLine
 10
267.6543317879496
 20
3.987341391684765
 30
0.0
 11
276.2935714699332
 21
-3.987341391684783
 31
0.0
  0
ARC
  5
998
330
971
100
AcDbEntity
  8
0
100
AcDbCircle
 10
268.6717519420491
 20
5.089544913082669
 30
0.0
 40
1.5
100
AcDbArc
 50
136.8476102659924
 51
227.2906100426371
  0
ARC
  5
999
330
971
100
AcDbEntity
  8
0
100
AcDbCircle
 10
268.6717519420491
 20
5.089546558626005
 30
0.0
 40
1.5
100
AcDbArc
 50
136.8476102659924
 51
227.2906100426371
  0
LINE
  5
99A
330
971
100
AcDbEntity
  8
0
100
AcDbLine
 10
267.577446135839
 20
6.115456606404667
 30
0.0
 11
269.738558353762
 21
6.822057701074799
 31
0.0
  0
LINE
  5
99B
330
971
100
AcDbEntity
  8
0
100
AcDbLine
 10
267.577446135839
 20
6.115458251947996
 30
0.0
 11
269.738558353762
 21
6.822059346618132
 31
0.0
  0
ARC
  5
99C
330
971
100
AcDbEntity
  8
0
100
AcDbCircle
 10
9.929141644997088
 20
18.76969168205748
 30
0.0
 40
6.0
100
AcDbArc
 50
110.448351522953
 51
168.3023500403638
  0
ARC
  5
99D
330
971
100
AcDbEntity
  8
0
100
AcDbCircle
 10
27.43161867301896
 20
18.76969168205748
 30
0.0
 40
6.0
100
AcDbArc
 50
11.69764995963616
 51
69.55164847704704
  0
ARC
  5
99E
330
971
100
AcDbEntity
  8
0
100
AcDbCircle
 10
18.68038015900802
 20
-4.701035569110008
 30
0.0
 40
31.04913597767017
100
AcDbArc
 50
90.0
 51
110.448351522953
  0
ARC
  5
99F
330
971
100
AcDbEntity
  8
0
100
AcDbCircle
 10
18.68038015900802
 20
-4.701035569110016
 30
0.0
 40
31.04913597767017
100
AcDbArc
 50
69.55164847704704
 51
90.0
  0
ARC
  5
9A0
330
971
100
AcDbEntity
  8
0
100
AcDbCircle
 10
253.2935714699333
 20
-4.701037214653351
 30
0.0
 40
31.04913597767017
100
AcDbArc
 50
69.55164847704704
 51
90.0
  0
ARC
  5
9A1
330
971
100
AcDbEntity
  8
0
100
AcDbCircle
 10
253.2935714699333
 20
-4.701035569110016
 30
0.0
 40
31.04913597767017
100
AcDbArc
 50
69.55164847704704
 51
90.0
  0
ARC
  5
9A2
330
971
100
AcDbEntity
  8
0
100
AcDbCircle
 10
244.542332955922
 20
18.76969003651412
 30
0.0
 40
6.0
100
AcDbArc
 50
110.448351522953
 51
168.3023500403637
  0
ARC
  5
9A3
330
971
100
AcDbEntity
  8
0
100
AcDbCircle
 10
244.5423329559224
 20
18.76969168205748
 30
0.0
 40
6.0
100
AcDbArc
 50
110.448351522953
 51
168.3023500403638
  0
ARC
  5
9A4
330
971
100
AcDbEntity
  8
0
100
AcDbCircle
 10
253.293571469933
 20
-4.701037214653351
 30
0.0
 40
31.04913597767017
100
AcDbArc
 50
90.0
 51
110.4483515229512
  0
ARC
  5
9A5
330
971
100
AcDbEntity
  8
0
100
AcDbCircle
 10
253.2935714699333
 20
-4.701035569110008
 30
0.0
 40
31.04913597767017
100
AcDbArc
 50
90.0
 51
110.448351522953
  0
ARC
  5
9A6
330
971
100
AcDbEntity
  8
0
100
AcDbCircle
 10
262.0448099839443
 20
18.76969003651415
 30
0.0
 40
6.0
100
AcDbArc
 50
11.69764995963616
 51
69.55164847704704
  0
ARC
  5
9A7
330
971
100
AcDbEntity
  8
0
100
AcDbCircle
 10
262.0448099839443
 20
18.76969168205748
 30
0.0
 40
6.0
100
AcDbArc
 50
11.69764995963616
 51
69.55164847704704
  0
LINE
  5
9A8
330
971
100
AcDbEntity
  8
0
100
AcDbLine
 10
470.7932582729906
 20
7.975289292325407
 30
0.0
 11
473.2800789166836
 21
19.98617282515437
 31
0.0
  0
LINE
  5
9A9
330
971
100
AcDbEntity
  8
0
100
AcDbLine
 10
505.0201501161195
 20
7.975289292325446
 30
0.0
 11
502.5333294724263
 21
19.98617282515439
 31
0.0
  0
LINE
  5
9AA
330
971
100
AcDbEntity
  8
0
100
AcDbLine
 10
470.7932582729909
 20
7.975290937868787
 30
0.0
 11
473.2800789166842
 21
19.98617447069771
 31
0.0
  0
LINE
  5
9AB
330
971
100
AcDbEntity
  8
0
100
AcDbLine
 10
505.0201501161195
 20
7.975290937868777
 30
0.0
 11
502.5333294724263
 21
19.98617447069771
 31
0.0
  0
LINE
  5
9AC
330
971
100
AcDbEntity
  8
0
100
AcDbLine
 10
705.4064324113091
 20
7.975289292325407
 30
0.0
 11
707.6871019154399
 21
18.99050096851255
 31
0.0
  0
ARC
  5
9AD
330
971
100
AcDbEntity
  8
0
100
AcDbCircle
 10
709.0637827175186
 20
18.39489206227614
 30
0.0
 40
1.5
100
AcDbArc
 50
249.7875649308876
 51
179.9999999999785
  0
LINE
  5
9AE
330
971
100
AcDbEntity
  8
0
100
AcDbLine
 10
517.2114609212616
 20
-16.98734303722816
 30
0.0
 11
693.2698783328734
 21
-16.98734303722816
 31
0.0
  0
LINE
  5
9AF
330
971
100
AcDbEntity
  8
0
100
AcDbLine
 10
464.9067041945548
 20
-3.987343037228171
 30
0.0
 11
461.9456285942363
 21
-14.68441386295866
 31
0.0
  0
LINE
  5
9B0
330
971
100
AcDbEntity
  8
0
100
AcDbLine
 10
510.9067041945551
 20
-3.987343037228118
 30
0.0
 11
513.8677797948736
 21
-14.68441386295861
 31
0.0
  0
LINE
  5
9B1
330
971
100
AcDbEntity
  8
0
100
AcDbLine
 10
510.9067041945551
 20
-3.987341391684783
 30
0.0
 11
513.8677797948736
 21
-14.68441221741528
 31
0.0
  0
ARC
  5
9B2
330
971
100
AcDbEntity
  8
0
100
AcDbCircle
 10
458.6567045394451
 20
-13.48734303722817
 30
0.0
 40
3.5
100
AcDbArc
 50
269.9999943540705
 51
339.9999943540738
  0
ARC
  5
9B3
330
971
100
AcDbEntity
  8
0
100
AcDbCircle
 10
517.1567038496648
 20
-13.48734303722812
 30
0.0
 40
3.5
100
AcDbArc
 50
200.0000056459258
 51
270.0000056459293
  0
ARC
  5
9B4
330
971
100
AcDbEntity
  8
0
100
AcDbCircle
 10
517.1567038496648
 20
-13.48734139168479
 30
0.0
 40
3.5
100
AcDbArc
 50
200.0000056459258
 51
270.0000056459293
  0
LINE
  5
9B5
330
971
100
AcDbEntity
  8
0
100
AcDbLine
 10
502.2674645125713
 20
3.987339746141433
 30
0.0
 11
510.9067041945551
 21
-3.987343037228118
 31
0.0
  0
LINE
  5
9B6
330
971
100
AcDbEntity
  8
0
100
AcDbLine
 10
502.2674645125713
 20
3.987341391684765
 30
0.0
 11
510.9067041945551
 21
-3.987341391684783
 31
0.0
  0
ARC
  5
9B7
330
971
100
AcDbEntity
  8
0
100
AcDbCircle
 10
504.0409189888094
 20
7.772542160885402
 30
0.0
 40
1.0
100
AcDbArc
 50
288.1057663445498
 51
11.69764995963616
  0
ARC
  5
9B8
330
971
100
AcDbEntity
  8
0
100
AcDbCircle
 10
504.0409189888094
 20
7.772543806428736
 30
0.0
 40
1.0
100
AcDbArc
 50
288.1057663445498
 51
11.69764995963616
  0
ARC
  5
9B9
330
971
100
AcDbEntity
  8
0
100
AcDbCircle
 10
471.7724894003005
 20
7.772542160885367
 30
0.0
 40
1.0
100
AcDbArc
 50
168.3023500403638
 51
251.8942336554501
  0
ARC
  5
9BA
330
971
100
AcDbEntity
  8
0
100
AcDbCircle
 10
471.7724894003008
 20
7.772543806428747
 30
0.0
 40
1.0
100
AcDbArc
 50
168.3023500403638
 51
251.8942336554501
  0
LINE
  5
9BB
330
971
100
AcDbEntity
  8
0
100
AcDbLine
 10
473.5459438765387
 20
3.987339746141396
 30
0.0
 11
464.9067041945548
 21
-3.987343037228171
 31
0.0
  0
LINE
  5
9BC
330
971
100
AcDbEntity
  8
0
100
AcDbLine
 10
473.5459438765388
 20
3.987341391684776
 30
0.0
 11
469.2263240355471
 21
0.0
 31
0.0
  0
ARC
  5
9BD
330
971
100
AcDbEntity
  8
0
100
AcDbCircle
 10
472.5285237224389
 20
5.089544913082632
 30
0.0
 40
1.5
100
AcDbArc
 50
312.7093899573626
 51
43.15238973400703
  0
ARC
  5
9BE
330
971
100
AcDbEntity
  8
0
100
AcDbCircle
 10
472.5285237224395
 20
5.089546558626011
 30
0.0
 40
1.5
100
AcDbArc
 50
312.7093899573628
 51
43.15238973400759
  0
LINE
  5
9BF
330
971
100
AcDbEntity
  8
0
100
AcDbLine
 10
473.6228295286492
 20
6.115456606404633
 30
0.0
 11
471.4617173107258
 21
6.822057701074762
 31
0.0
  0
LINE
  5
9C0
330
971
100
AcDbEntity
  8
0
100
AcDbLine
 10
473.6228295286495
 20
6.115458251948007
 30
0.0
 11
471.4617173107264
 21
6.822059346618142
 31
0.0
  0
ARC
  5
9C1
330
971
100
AcDbEntity
  8
0
100
AcDbCircle
 10
503.2848846666708
 20
5.089544913082669
 30
0.0
 40
1.5
100
AcDbArc
 50
136.8476102659924
 51
227.2906100426371
  0
ARC
  5
9C2
330
971
100
AcDbEntity
  8
0
100
AcDbCircle
 10
503.2848846666708
 20
5.089546558626005
 30
0.0
 40
1.5
100
AcDbArc
 50
136.8476102659924
 51
227.2906100426371
  0
LINE
  5
9C3
330
971
100
AcDbEntity
  8
0
100
AcDbLine
 10
502.1905788604606
 20
6.115456606404667
 30
0.0
 11
504.351691078384
 21
6.822057701074799
 31
0.0
  0
LINE
  5
9C4
330
971
100
AcDbEntity
  8
0
100
AcDbLine
 10
502.1905788604606
 20
6.115458251947996
 30
0.0
 11
504.351691078384
 21
6.822059346618132
 31
0.0
  0
LINE
  5
9C5
330
971
100
AcDbEntity
  8
0
100
AcDbLine
 10
699.5198783328734
 20
-3.987343037228171
 30
0.0
 11
696.5588027325548
 21
-14.68441386295866
 31
0.0
  0
ARC
  5
9C6
330
971
100
AcDbEntity
  8
0
100
AcDbCircle
 10
693.2698786777635
 20
-13.48734303722817
 30
0.0
 40
3.5
100
AcDbArc
 50
269.9999943540739
 51
339.9999943540718
  0
ARC
  5
9C7
330
971
100
AcDbEntity
  8
0
100
AcDbCircle
 10
706.3856635386189
 20
7.772542160885367
 30
0.0
 40
1.0
100
AcDbArc
 50
168.3023500403626
 51
251.8942336554501
  0
LINE
  5
9C8
330
971
100
AcDbEntity
  8
0
100
AcDbLine
 10
708.1591180148572
 20
3.987339746141396
 30
0.0
 11
699.5198783328734
 21
-3.987343037228171
 31
0.0
  0
ARC
  5
9C9
330
971
100
AcDbEntity
  8
0
100
AcDbCircle
 10
707.1416978607572
 20
5.089544913082632
 30
0.0
 40
1.5
100
AcDbArc
 50
312.7093899573626
 51
43.15238973400356
  0
LINE
  5
9CA
330
971
100
AcDbEntity
  8
0
100
AcDbLine
 10
708.2360036669674
 20
6.115456606404633
 30
0.0
 11
706.0748914490443
 21
6.822057701074762
 31
0.0
  0
ARC
  5
9CB
330
971
100
AcDbEntity
  8
0
100
AcDbCircle
 10
496.6579427085661
 20
18.76969003651415
 30
0.0
 40
6.0
100
AcDbArc
 50
11.69764995963616
 51
69.55164847704704
  0
ARC
  5
9CC
330
971
100
AcDbEntity
  8
0
100
AcDbCircle
 10
496.6579427085661
 20
18.76969168205748
 30
0.0
 40
6.0
100
AcDbArc
 50
11.69764995963616
 51
69.55164847704704
  0
ARC
  5
9CD
330
971
100
AcDbEntity
  8
0
100
AcDbCircle
 10
479.1554656805439
 20
18.76969003651412
 30
0.0
 40
6.0
100
AcDbArc
 50
110.448351522953
 51
168.3023500403637
  0
ARC
  5
9CE
330
971
100
AcDbEntity
  8
0
100
AcDbCircle
 10
479.1554656805441
 20
18.76969168205748
 30
0.0
 40
6.0
100
AcDbArc
 50
110.448351522953
 51
168.3023500403638
  0
ARC
  5
9CF
330
971
100
AcDbEntity
  8
0
100
AcDbCircle
 10
487.9067041945551
 20
-4.701037214653351
 30
0.0
 40
31.04913597767017
100
AcDbArc
 50
69.55164847704704
 51
90.0
  0
ARC
  5
9D0
330
971
100
AcDbEntity
  8
0
100
AcDbCircle
 10
487.9067041945551
 20
-4.701035569110016
 30
0.0
 40
31.04913597767017
100
AcDbArc
 50
69.55164847704704
 51
90.0
  0
ARC
  5
9D1
330
971
100
AcDbEntity
  8
0
100
AcDbCircle
 10
487.9067041945549
 20
-4.701037214653351
 30
0.0
 40
31.04913597767017
100
AcDbArc
 50
90.0
 51
110.448351522953
  0
ARC
  5
9D2
330
971
100
AcDbEntity
  8
0
100
AcDbCircle
 10
487.9067041945551
 20
-4.701035569110008
 30
0.0
 40
31.04913597767017
100
AcDbArc
 50
90.0
 51
110.448351522953
  0
ENDBLK
  5
973
330
971
100
AcDbEntity
  8
0
 62
     2
100
AcDbBlockEnd
  0
ENDSEC
  0
SECTION
  2
ENTITIES
  0
INSERT
  5
9D3
330
1F
100
AcDbEntity
  8
0
 62
     2
100
AcDbBlockReference
  2
BHPKLIP700
 10
1.0
 20
1.0
 30
0.0
  0
ENDSEC
  0
SECTION
  2
OBJECTS
  0
DICTIONARY
  5
C
330
0
100
AcDbDictionary
281
     1
  3
ACAD_GROUP
350
D
  3
ACAD_LAYOUT
350
1A
  3
ACAD_MLINESTYLE
350
17
  3
ACAD_PLOTSETTINGS
350
19
  3
ACAD_PLOTSTYLENAME
350
A33
  3
ACDBHEADERROUNDTRIPXREC
350
A5F
  0
DICTIONARY
  5
D
102
{ACAD_REACTORS
330
C
102
}
330
C
100
AcDbDictionary
281
     1
  0
DICTIONARY
  5
1A
102
{ACAD_REACTORS
330
C
102
}
330
C
100
AcDbDictionary
281
     1
  3
Layout1
350
A36
  3
Model
350
A35
  0
DICTIONARY
  5
17
102
{ACAD_REACTORS
330
C
102
}
330
C
100
AcDbDictionary
281
     1
  3
STANDARD
350
18
  0
DICTIONARY
  5
19
102
{ACAD_REACTORS
330
C
102
}
330
C
100
AcDbDictionary
281
     1
  0
ACDBDICTIONARYWDFLT
  5
A33
102
{ACAD_REACTORS
330
C
102
}
330
C
100
AcDbDictionary
281
     1
  3
Normal
350
A34
100
AcDbDictionaryWithDefault
340
A34
  0
DICTIONARY
  5
A5F
102
{ACAD_REACTORS
330
C
102
}
330
C
100
AcDbDictionary
281
     1
  3
CEPSNTYPE
350
A69
  3
FINGERPRINTGUID
350
A6A
  3
HYPERLINKBASE
350
A62
  3
INSUNITS
350
A68
  3
LAYOUTDICT
350
A64
  3
LWETCUNION
350
A67
  3
PLOTSETDICT
350
A65
  3
PLOTSTYLNAMDICT
350
A66
  3
PSVPSCALE
350
A6C
  3
PUCSBASE
350
A6F
  3
PUCSORGBACK
350
A75
  3
PUCSORGBOTTOM
350
A71
  3
PUCSORGFRONT
350
A74
  3
PUCSORGLEFT
350
A72
  3
PUCSORGRIGHT
350
A73
  3
PUCSORGTOP
350
A70
  3
PUCSORTHOREF
350
A6D
  3
PUCSORTHOVIEW
350
A6E
  3
STYLESHEET
350
A63
  3
TSTACKALIGN
350
A60
  3
TSTACKSIZE
350
A61
  3
UCSBASE
350
A78
  3
UCSORGBACK
350
A7E
  3
UCSORGBOTTOM
350
A7A
  3
UCSORGFRONT
350
A7D
  3
UCSORGLEFT
350
A7B
  3
UCSORGRIGHT
350
A7C
  3
UCSORGTOP
350
A79
  3
UCSORTHOREF
350
A76
  3
UCSORTHOVIEW
350
A77
  3
VERSIONGUID
350
A6B
  0
LAYOUT
  5
A36
102
{ACAD_REACTORS
330
1A
102
}
330
1A
100
AcDbPlotSettings
  1

  2
HP LaserJet 2100 PCL6
  4

  6

 40
0.0
 41
0.0
 42
0.0
 43
0.0
 44
0.0
 45
0.0
 46
0.0
 47
0.0
 48
0.0
 49
0.0
140
0.0
141
0.0
142
1.0
143
1.0
 70
   688
 72
     0
 73
     0
 74
     5
  7

 75
    16
147
1.0
148
0.0
149
0.0
100
AcDbLayout
  1
Layout1
 70
     1
 71
     1
 10
0.0
 20
0.0
 11
12.0
 21
9.0
 12
0.0
 22
0.0
 32
0.0
 14
1.000000000000000E+20
 24
1.000000000000000E+20
 34
1.000000000000000E+20
 15
-1.000000000000000E+20
 25
-1.000000000000000E+20
 35
-1.000000000000000E+20
146
0.0
 13
0.0
 23
0.0
 33
0.0
 16
1.0
 26
0.0
 36
0.0
 17
0.0
 27
1.0
 37
0.0
 76
     0
330
1B
  0
LAYOUT
  5
A35
102
{ACAD_REACTORS
330
1A
102
}
330
1A
100
AcDbPlotSettings
  1

  2
HP LaserJet 2100 PCL6
  4

  6

 40
0.0
 41
0.0
 42
0.0
 43
0.0
 44
0.0
 45
0.0
 46
0.0
 47
0.0
 48
0.0
 49
0.0
140
0.0
141
0.0
142
1.0
143
1.0
 70
  1712
 72
     0
 73
     0
 74
     0
  7

 75
     0
147
1.0
148
0.0
149
0.0
100
AcDbLayout
  1
Model
 70
     1
 71
     0
 10
0.0
 20
0.0
 11
12.0
 21
9.0
 12
0.0
 22
0.0
 32
0.0
 14
0.0
 24
0.0
 34
0.0
 15
0.0
 25
0.0
 35
0.0
146
0.0
 13
0.0
 23
0.0
 33
0.0
 16
1.0
 26
0.0
 36
0.0
 17
0.0
 27
1.0
 37
0.0
 76
     0
330
1F
  0
MLINESTYLE
  5
18
102
{ACAD_REACTORS
330
17
102
}
330
17
100
AcDbMlineStyle
  2
STANDARD
 70
     0
  3

 62
   256
 51
90.0
 52
90.0
 71
     2
 49
0.5
 62
   256
  6
BYLAYER
 49
-0.5
 62
   256
  6
BYLAYER
  0
ACDBPLACEHOLDER
  5
A34
102
{ACAD_REACTORS
330
A33
102
}
330
A33
  0
XRECORD
  5
A69
102
{ACAD_REACTORS
330
A5F
102
}
330
A5F
100
AcDbXrecord
280
     1
 90
        0
  0
XRECORD
  5
A6A
102
{ACAD_REACTORS
330
A5F
102
}
330
A5F
100
AcDbXrecord
280
     1
  1
{FDEAD576-A652-11D2-9A35-0060089B3A3F}
  0
XRECORD
  5
A62
102
{ACAD_REACTORS
330
A5F
102
}
330
A5F
100
AcDbXrecord
280
     1
  1

  0
XRECORD
  5
A68
102
{ACAD_REACTORS
330
A5F
102
}
330
A5F
100
AcDbXrecord
280
     1
 90
        4
  0
XRECORD
  5
A64
102
{ACAD_REACTORS
330
A5F
102
}
330
A5F
100
AcDbXrecord
280
     1
340
1A
  0
XRECORD
  5
A67
102
{ACAD_REACTORS
330
A5F
102
}
330
A5F
100
AcDbXrecord
280
     1
 90
    10752
  0
XRECORD
  5
A65
102
{ACAD_REACTORS
330
A5F
102
}
330
A5F
100
AcDbXrecord
280
     1
340
19
  0
XRECORD
  5
A66
102
{ACAD_REACTORS
330
A5F
102
}
330
A5F
100
AcDbXrecord
280
     1
340
A33
  0
XRECORD
  5
A6C
102
{ACAD_REACTORS
330
A5F
102
}
330
A5F
100
AcDbXrecord
280
     1
 40
0.0
  0
XRECORD
  5
A6F
102
{ACAD_REACTORS
330
A5F
102
}
330
A5F
100
AcDbXrecord
280
     1
340
0
  0
XRECORD
  5
A75
102
{ACAD_REACTORS
330
A5F
102
}
330
A5F
100
AcDbXrecord
280
     1
 10
0.0
 20
0.0
 30
0.0
  0
XRECORD
  5
A71
102
{ACAD_REACTORS
330
A5F
102
}
330
A5F
100
AcDbXrecord
280
     1
 10
0.0
 20
0.0
 30
0.0
  0
XRECORD
  5
A74
102
{ACAD_REACTORS
330
A5F
102
}
330
A5F
100
AcDbXrecord
280
     1
 10
0.0
 20
0.0
 30
0.0
  0
XRECORD
  5
A72
102
{ACAD_REACTORS
330
A5F
102
}
330
A5F
100
AcDbXrecord
280
     1
 10
0.0
 20
0.0
 30
0.0
  0
XRECORD
  5
A73
102
{ACAD_REACTORS
330
A5F
102
}
330
A5F
100
AcDbXrecord
280
     1
 10
0.0
 20
0.0
 30
0.0
  0
XRECORD
  5
A70
102
{ACAD_REACTORS
330
A5F
102
}
330
A5F
100
AcDbXrecord
280
     1
 10
0.0
 20
0.0
 30
0.0
  0
XRECORD
  5
A6D
102
{ACAD_REACTORS
330
A5F
102
}
330
A5F
100
AcDbXrecord
280
     1
340
0
  0
XRECORD
  5
A6E
102
{ACAD_REACTORS
330
A5F
102
}
330
A5F
100
AcDbXrecord
280
     1
 70
     0
  0
XRECORD
  5
A63
102
{ACAD_REACTORS
330
A5F
102
}
330
A5F
100
AcDbXrecord
280
     1
  1

  0
XRECORD
  5
A60
102
{ACAD_REACTORS
330
A5F
102
}
330
A5F
100
AcDbXrecord
280
     1
 90
        1
  0
XRECORD
  5
A61
102
{ACAD_REACTORS
330
A5F
102
}
330
A5F
100
AcDbXrecord
280
     1
 90
       70
  0
XRECORD
  5
A78
102
{ACAD_REACTORS
330
A5F
102
}
330
A5F
100
AcDbXrecord
280
     1
340
0
  0
XRECORD
  5
A7E
102
{ACAD_REACTORS
330
A5F
102
}
330
A5F
100
AcDbXrecord
280
     1
 10
0.0
 20
0.0
 30
0.0
  0
XRECORD
  5
A7A
102
{ACAD_REACTORS
330
A5F
102
}
330
A5F
100
AcDbXrecord
280
     1
 10
0.0
 20
0.0
 30
0.0
  0
XRECORD
  5
A7D
102
{ACAD_REACTORS
330
A5F
102
}
330
A5F
100
AcDbXrecord
280
     1
 10
0.0
 20
0.0
 30
0.0
  0
XRECORD
  5
A7B
102
{ACAD_REACTORS
330
A5F
102
}
330
A5F
100
AcDbXrecord
280
     1
 10
0.0
 20
0.0
 30
0.0
  0
XRECORD
  5
A7C
102
{ACAD_REACTORS
330
A5F
102
}
330
A5F
100
AcDbXrecord
280
     1
 10
0.0
 20
0.0
 30
0.0
  0
XRECORD
  5
A79
102
{ACAD_REACTORS
330
A5F
102
}
330
A5F
100
AcDbXrecord
280
     1
 10
0.0
 20
0.0
 30
0.0
  0
XRECORD
  5
A76
102
{ACAD_REACTORS
330
A5F
102
}
330
A5F
100
AcDbXrecord
280
     1
340
0
  0
XRECORD
  5
A77
102
{ACAD_REACTORS
330
A5F
102
}
330
A5F
100
AcDbXrecord
280
     1
 70
     0
  0
XRECORD
  5
A6B
102
{ACAD_REACTORS
330
A5F
102
}
330
A5F
100
AcDbXrecord
280
     1
  1
{07C13FCF-41DD-4D53-824A-5DC2D5BFB3A3}
  0
ENDSEC
  0
EOF
