  0
SECTION
  2
HEADER
  9
$ACADVER
  1
AC1015
  9
$ACADMAINTVER
 70
     6
  9
$DWGCODEPAGE
  3
ANSI_1252
  9
$INSBASE
 10
0.0
 20
0.0
 30
0.0
  9
$EXTMIN
 10
-13.1875
 20
-0.000000000003638
 30
0.0
  9
$EXTMAX
 10
420.2669897281448
 20
40.0
 30
0.0
  9
$LIMMIN
 10
0.0
 20
0.0
  9
$LIMMAX
 10
80300.0
 20
57400.0
  9
$ORTHOMODE
 70
     0
  9
$REGENMODE
 70
     1
  9
$FILLMODE
 70
     1
  9
$QTEXTMODE
 70
     0
  9
$MIRRTEXT
 70
     0
  9
$LTSCALE
 40
500.0
  9
$ATTMODE
 70
     1
  9
$TEXTSIZE
 40
75.0
  9
$TRACEWID
 40
0.05
  9
$TEXTSTYLE
  7
STANDARD
  9
$CLAYER
  8
0
  9
$CELTYPE
  6
BYLAYER
  9
$CECOLOR
 62
   256
  9
$CELTSCALE
 40
1.0
  9
$DISPSILH
 70
     0
  9
$DIMSCALE
 40
10.0
  9
$DIMASZ
 40
2.0
  9
$DIMEXO
 40
2.0
  9
$DIMDLI
 40
0.0
  9
$DIMRND
 40
0.0
  9
$DIMDLE
 40
5.0
  9
$DIMEXE
 40
5.0
  9
$DIMTP
 40
0.0
  9
$DIMTM
 40
0.0
  9
$DIMTXT
 40
3.0
  9
$DIMCEN
 40
0.0
  9
$DIMTSZ
 40
0.0
  9
$DIMTOL
 70
     0
  9
$DIMLIM
 70
     0
  9
$DIMTIH
 70
     0
  9
$DIMTOH
 70
     0
  9
$DIMSE1
 70
     0
  9
$DIMSE2
 70
     0
  9
$DIMTAD
 70
     1
  9
$DIMZIN
 70
     0
  9
$DIMBLK
  1

  9
$DIMASO
 70
     1
  9
$DIMSHO
 70
     1
  9
$DIMPOST
  1

  9
$DIMAPOST
  1

  9
$DIMALT
 70
     0
  9
$DIMALTD
 70
     0
  9
$DIMALTF
 40
25.4
  9
$DIMLFAC
 40
1.0
  9
$DIMTOFL
 70
     1
  9
$DIMTVP
 40
0.0
  9
$DIMTIX
 70
     0
  9
$DIMSOXD
 70
     0
  9
$DIMSAH
 70
     0
  9
$DIMBLK1
  1

  9
$DIMBLK2
  1

  9
$DIMSTYLE
  2
STANDARD
  9
$DIMCLRD
 70
   256
  9
$DIMCLRE
 70
   256
  9
$DIMCLRT
 70
   256
  9
$DIMTFAC
 40
0.3333333333333333
  9
$DIMGAP
 40
2.0
  9
$DIMJUST
 70
     0
  9
$DIMSD1
 70
     0
  9
$DIMSD2
 70
     0
  9
$DIMTOLJ
 70
     1
  9
$DIMTZIN
 70
     0
  9
$DIMALTZ
 70
     0
  9
$DIMALTTZ
 70
     0
  9
$DIMUPT
 70
     0
  9
$DIMDEC
 70
     4
  9
$DIMTDEC
 70
     4
  9
$DIMALTU
 70
     2
  9
$DIMALTTD
 70
     2
  9
$DIMTXSTY
  7
STANDARD
  9
$DIMAUNIT
 70
     0
  9
$DIMADEC
 70
     0
  9
$DIMALTRND
 40
0.0
  9
$DIMAZIN
 70
     0
  9
$DIMDSEP
 70
    46
  9
$DIMATFIT
 70
     3
  9
$DIMFRAC
 70
     0
  9
$DIMLDRBLK
  1

  9
$DIMLUNIT
 70
     2
  9
$DIMLWD
 70
    -2
  9
$DIMLWE
 70
    -2
  9
$DIMTMOVE
 70
     0
  9
$LUNITS
 70
     2
  9
$LUPREC
 70
     0
  9
$SKETCHINC
 40
50.0
  9
$FILLETRAD
 40
0.0
  9
$AUNITS
 70
     0
  9
$AUPREC
 70
     2
  9
$MENU
  1
C:\AutoCAD\R13\win\SUPPORT\ACAD
  9
$ELEVATION
 40
0.0
  9
$PELEVATION
 40
0.0
  9
$THICKNESS
 40
0.0
  9
$LIMCHECK
 70
     0
  9
$CHAMFERA
 40
0.0
  9
$CHAMFERB
 40
0.0
  9
$CHAMFERC
 40
0.0
  9
$CHAMFERD
 40
0.0
  9
$SKPOLY
 70
     0
  9
$TDCREATE
 40
2450734.229041782
  9
$TDUCREATE
 40
2450733.833208449
  9
$TDUPDATE
 40
2453207.270107546
  9
$TDUUPDATE
 40
2453206.874274213
  9
$TDINDWG
 40
0.3977368634
  9
$TDUSRTIMER
 40
0.3977368634
  9
$USRTIMER
 70
     1
  9
$ANGBASE
 50
0.0
  9
$ANGDIR
 70
     0
  9
$PDMODE
 70
     3
  9
$PDSIZE
 40
100.0
  9
$PLINEWID
 40
0.0
  9
$SPLFRAME
 70
     0
  9
$SPLINETYPE
 70
     6
  9
$SPLINESEGS
 70
     8
  9
$HANDSEED
  5
204
  9
$SURFTAB1
 70
     6
  9
$SURFTAB2
 70
     6
  9
$SURFTYPE
 70
     6
  9
$SURFU
 70
     6
  9
$SURFV
 70
     6
  9
$UCSBASE
  2

  9
$UCSNAME
  2

  9
$UCSORG
 10
0.0
 20
0.0
 30
0.0
  9
$UCSXDIR
 10
1.0
 20
0.0
 30
0.0
  9
$UCSYDIR
 10
0.0
 20
1.0
 30
0.0
  9
$UCSORTHOREF
  2

  9
$UCSORTHOVIEW
 70
     0
  9
$UCSORGTOP
 10
0.0
 20
0.0
 30
0.0
  9
$UCSORGBOTTOM
 10
0.0
 20
0.0
 30
0.0
  9
$UCSORGLEFT
 10
0.0
 20
0.0
 30
0.0
  9
$UCSORGRIGHT
 10
0.0
 20
0.0
 30
0.0
  9
$UCSORGFRONT
 10
0.0
 20
0.0
 30
0.0
  9
$UCSORGBACK
 10
0.0
 20
0.0
 30
0.0
  9
$PUCSBASE
  2

  9
$PUCSNAME
  2

  9
$PUCSORG
 10
0.0
 20
0.0
 30
0.0
  9
$PUCSXDIR
 10
1.0
 20
0.0
 30
0.0
  9
$PUCSYDIR
 10
0.0
 20
1.0
 30
0.0
  9
$PUCSORTHOREF
  2

  9
$PUCSORTHOVIEW
 70
     0
  9
$PUCSORGTOP
 10
0.0
 20
0.0
 30
0.0
  9
$PUCSORGBOTTOM
 10
0.0
 20
0.0
 30
0.0
  9
$PUCSORGLEFT
 10
0.0
 20
0.0
 30
0.0
  9
$PUCSORGRIGHT
 10
0.0
 20
0.0
 30
0.0
  9
$PUCSORGFRONT
 10
0.0
 20
0.0
 30
0.0
  9
$PUCSORGBACK
 10
0.0
 20
0.0
 30
0.0
  9
$USERI1
 70
     0
  9
$USERI2
 70
     0
  9
$USERI3
 70
     0
  9
$USERI4
 70
     0
  9
$USERI5
 70
     0
  9
$USERR1
 40
0.0
  9
$USERR2
 40
0.0
  9
$USERR3
 40
0.0
  9
$USERR4
 40
0.0
  9
$USERR5
 40
100.0
  9
$WORLDVIEW
 70
     1
  9
$SHADEDGE
 70
     3
  9
$SHADEDIF
 70
    70
  9
$TILEMODE
 70
     1
  9
$MAXACTVP
 70
    16
  9
$PINSBASE
 10
0.0
 20
0.0
 30
0.0
  9
$PLIMCHECK
 70
     0
  9
$PEXTMIN
 10
0.0
 20
0.0
 30
0.0
  9
$PEXTMAX
 10
801.0
 20
575.0
 30
0.0
  9
$PLIMMIN
 10
0.0
 20
0.0
  9
$PLIMMAX
 10
803.0
 20
574.0
  9
$UNITMODE
 70
     0
  9
$VISRETAIN
 70
     0
  9
$PLINEGEN
 70
     1
  9
$PSLTSCALE
 70
     0
  9
$TREEDEPTH
 70
  3020
  9
$CMLSTYLE
  2
STANDARD
  9
$CMLJUST
 70
     0
  9
$CMLSCALE
 40
1.0
  9
$PROXYGRAPHICS
 70
     1
  9
$MEASUREMENT
 70
     1
  9
$CELWEIGHT
370
    -1
  9
$ENDCAPS
280
     0
  9
$JOINSTYLE
280
     0
  9
$LWDISPLAY
290
     0
  9
$INSUNITS
 70
     0
  9
$HYPERLINKBASE
  1

  9
$STYLESHEET
  1

  9
$XEDIT
290
     1
  9
$CEPSNTYPE
380
     0
  9
$PSTYLEMODE
290
     1
  9
$FINGERPRINTGUID
  2
{FD5FAFEF-C7D7-11D5-9AB3-006067068FD3}
  9
$VERSIONGUID
  2
{5B44D86C-376D-4C92-A703-0E9D456CE055}
  9
$EXTNAMES
290
     1
  9
$PSVPSCALE
 40
0.0
  9
$OLESTARTUP
290
     0
  0
ENDSEC
  0
SECTION
  2
CLASSES
  0
CLASS
  1
LWPOLYLINE
  2
AcDbPolyline
  3
AutoCAD 2000
 90
        0
280
     0
281
     1
  0
CLASS
  1
DICTIONARYVAR
  2
AcDbDictionaryVar
  3
ObjectDBX Classes
 90
        0
280
     0
281
     0
  0
CLASS
  1
ACDBDICTIONARYWDFLT
  2
AcDbDictionaryWithDefault
  3
ObjectDBX Classes
 90
        0
280
     0
281
     0
  0
CLASS
  1
ACDBPLACEHOLDER
  2
AcDbPlaceHolder
  3
ObjectDBX Classes
 90
        0
280
     0
281
     0
  0
CLASS
  1
LAYOUT
  2
AcDbLayout
  3
ObjectDBX Classes
 90
        0
280
     0
281
     0
  0
CLASS
  1
LONG_TRANSACTION
  2
AcDbLongTransaction
  3
AutoCAD 2000
 90
   -65536
280
     1
281
     0
  0
CLASS
  1
LWPOLYLINE
  2
AcDbPolyline
  3
AutoCAD 2000
 90
        0
280
     0
281
     1
  0
CLASS
  1
HATCH
  2
AcDbHatch
  3
AutoCAD 2000
 90
        0
280
     0
281
     1
  0
CLASS
  1
XRECORD
  2
AcDbXrecord
  3
AutoCAD 2000
 90
        0
280
     0
281
     0
  0
ENDSEC
  0
SECTION
  2
TABLES
  0
TABLE
  2
VPORT
  5
1D
330
0
100
AcDbSymbolTable
 70
     3
  0
VPORT
  5
1FF
330
1D
100
AcDbSymbolTableRecord
100
AcDbViewportTableRecord
  2
*Active
 70
     0
 10
0.0
 20
0.0
 11
1.0
 21
1.0
 12
203.5397448640725
 22
19.99999999999818
 13
0.0
 23
0.0
 14
5.0
 24
5.0
 15
10.0
 25
10.0
 16
0.0
 26
0.0
 36
1.0
 17
0.0
 27
0.0
 37
0.0
 40
287.2722631412969
 41
1.516372795969773
 42
50.0
 43
0.0
 44
0.0
 50
0.0
 51
0.0
 71
     0
 72
   100
 73
     1
 74
     0
 75
     0
 76
     0
 77
     0
 78
     2
281
     0
 65
     1
110
0.0
120
0.0
130
0.0
111
1.0
121
0.0
131
0.0
112
0.0
122
1.0
132
0.0
 79
     0
146
0.0
  0
ENDTAB
  0
TABLE
  2
LTYPE
  5
18
330
0
100
AcDbSymbolTable
 70
     1
  0
LTYPE
  5
19
330
18
100
AcDbSymbolTableRecord
100
AcDbLinetypeTableRecord
  2
BYBLOCK
 70
     0
  3

 72
    65
 73
     0
 40
0.0
  0
LTYPE
  5
1A
330
18
100
AcDbSymbolTableRecord
100
AcDbLinetypeTableRecord
  2
BYLAYER
 70
     0
  3

 72
    65
 73
     0
 40
0.0
  0
LTYPE
  5
A
330
18
100
AcDbSymbolTableRecord
100
AcDbLinetypeTableRecord
  2
CONTINUOUS
 70
     0
  3
Solid line
 72
    65
 73
     0
 40
0.0
  0
ENDTAB
  0
TABLE
  2
LAYER
  5
14
330
0
100
AcDbSymbolTable
 70
     1
  0
LAYER
  5
6
330
14
100
AcDbSymbolTableRecord
100
AcDbLayerTableRecord
  2
0
 70
     0
 62
     7
  6
CONTINUOUS
370
    -3
390
7
  0
ENDTAB
  0
TABLE
  2
STYLE
  5
15
330
0
100
AcDbSymbolTable
 70
     1
  0
STYLE
  5
16
330
15
100
AcDbSymbolTableRecord
100
AcDbTextStyleTableRecord
  2
STANDARD
 70
     0
 40
0.0
 41
1.0
 50
0.0
 71
     0
 42
75.0
  3
isocp.shx
  4

  0
ENDTAB
  0
TABLE
  2
VIEW
  5
1B
330
0
100
AcDbSymbolTable
 70
     0
  0
ENDTAB
  0
TABLE
  2
UCS
  5
1C
330
0
100
AcDbSymbolTable
 70
     0
  0
ENDTAB
  0
TABLE
  2
APPID
  5
1F
330
0
100
AcDbSymbolTable
 70
     1
  0
APPID
  5
20
330
1F
100
AcDbSymbolTableRecord
100
AcDbRegAppTableRecord
  2
ACAD
 70
     0
  0
ENDTAB
  0
TABLE
  2
DIMSTYLE
  5
21
330
0
100
AcDbSymbolTable
 70
     1
100
AcDbDimStyleTable
  0
DIMSTYLE
105
27
330
21
100
AcDbSymbolTableRecord
100
AcDbDimStyleTableRecord
  2
STANDARD
 70
     0
271
     0
272
     0
279
     2
340
16
  0
ENDTAB
  0
TABLE
  2
BLOCK_RECORD
  5
1
330
0
100
AcDbSymbolTable
 70
     0
  0
BLOCK_RECORD
  5
2
330
1
100
AcDbSymbolTableRecord
100
AcDbBlockTableRecord
  2
*MODEL_SPACE
340
C
  0
BLOCK_RECORD
  5
E
330
1
100
AcDbSymbolTableRecord
100
AcDbBlockTableRecord
  2
*PAPER_SPACE
340
13
  0
ENDTAB
  0
ENDSEC
  0
SECTION
  2
BLOCKS
  0
BLOCK
  5
5
330
2
100
AcDbEntity
  8
0
100
AcDbBlockBegin
  2
*MODEL_SPACE
 70
     0
 71
     0
 10
0.0
 20
0.0
 30
0.0
  3
*MODEL_SPACE
  1

  0
ENDBLK
  5
B
330
2
100
AcDbEntity
  8
0
100
AcDbBlockEnd
  0
BLOCK
  5
11
330
E
100
AcDbEntity
 67
     1
  8
0
100
AcDbBlockBegin
  2
*PAPER_SPACE
 70
     0
 71
     0
 10
0.0
 20
0.0
 30
0.0
  3
*PAPER_SPACE
  1

  0
ENDBLK
  5
12
330
E
100
AcDbEntity
 67
     1
  8
0
100
AcDbBlockEnd
  0
ENDSEC
  0
SECTION
  2
ENTITIES
  0
LINE
  5
15E
330
2
100
AcDbEntity
  8
0
100
AcDbLine
 10
20.1539142265101
 20
0.0
 30
0.0
 11
57.67157287524606
 21
0.0
 31
0.0
  0
LINE
  5
169
330
2
100
AcDbEntity
  8
0
100
AcDbLine
 10
200.3452467765746
 20
40.0
 30
0.0
 11
207.6547532234545
 21
40.0
 31
0.0
  0
LINE
  5
16A
330
2
100
AcDbEntity
  8
0
100
AcDbLine
 10
186.1469130696205
 20
1.52214839914086
 30
0.0
 11
193.7331310082809
 21
19.37207296069028
 31
0.0
  0
LINE
  5
171
330
2
100
AcDbEntity
  8
0
100
AcDbLine
 10
193.5126543020597
 20
20.47749931531871
 30
0.0
 11
192.4707981498505
 21
21.4983056986639
 31
0.0
  0
LINE
  5
172
330
2
100
AcDbEntity
  8
0
100
AcDbLine
 10
191.9244611985923
 20
24.27321681141984
 30
0.0
 11
198.049274294739
 21
38.48919682706401
 31
0.0
  0
LINE
  5
173
330
2
100
AcDbEntity
  8
0
100
AcDbLine
 10
214.4873456979549
 20
20.47749931532962
 30
0.0
 11
215.5292018501204
 21
21.49830569863116
 31
0.0
  0
LINE
  5
174
330
2
100
AcDbEntity
  8
0
100
AcDbLine
 10
216.0755388013931
 20
24.27321681140529
 30
0.0
 11
209.9507257052901
 21
38.48919682706037
 31
0.0
  0
LINE
  5
175
330
2
100
AcDbEntity
  8
0
100
AcDbLine
 10
221.853086930365
 20
1.52214839914086
 30
0.0
 11
214.2668689917337
 21
19.37207296070119
 31
0.0
  0
LINE
  5
176
330
2
100
AcDbEntity
  8
0
100
AcDbLine
 10
17.85308693036495
 20
1.52214839914086
 30
0.0
 11
10.26686899171909
 21
19.37207296070119
 31
0.0
  0
LINE
  5
178
330
2
100
AcDbEntity
  8
0
100
AcDbLine
 10
10.48734569794033
 20
20.47749931532962
 30
0.0
 11
11.59617633401649
 21
21.56392702315497
 31
0.0
  0
LINE
  5
17A
330
2
100
AcDbEntity
  8
0
100
AcDbLine
 10
-10.48734569794033
 20
20.47749931531871
 30
0.0
 11
-11.59617633401649
 21
21.5639270231477
 31
0.0
  0
LINE
  5
17B
330
2
100
AcDbEntity
  8
0
100
AcDbLine
 10
-13.1875
 20
12.5
 30
0.0
 11
-10.26686899171909
 21
19.37207296069391
 31
0.0
  0
LINE
  5
181
330
2
100
AcDbEntity
  8
0
100
AcDbLine
 10
397.5126543020742
 20
20.47749931531871
 30
0.0
 11
396.4038236659981
 21
21.56392702313315
 31
0.0
  0
LINE
  5
182
330
2
100
AcDbEntity
  8
0
100
AcDbLine
 10
390.1469130696496
 20
1.522148399133585
 30
0.0
 11
397.73313100831
 21
19.37207296068664
 31
0.0
  0
LINE
  5
18B
330
2
100
AcDbEntity
  8
0
100
AcDbLine
 10
420.1693883239932
 20
27.4043705446602
 30
0.0
 11
420.2669897281448
 21
27.5
 31
0.0
  0
ARC
  5
18C
330
2
100
AcDbEntity
  8
0
100
AcDbCircle
 10
419.4695341117622
 20
28.11865625894279
 30
0.0
 40
1.0
100
AcDbArc
 50
188.1070154618763
 51
314.4153085975283
  0
ARC
  5
191
330
2
100
AcDbEntity
  8
0
100
AcDbCircle
 10
396.8128000898578
 20
19.76321360103248
 30
0.0
 40
1.0
100
AcDbArc
 50
336.974507991472
 51
45.58469140297461
  0
ARC
  5
192
330
2
100
AcDbEntity
  8
0
100
AcDbCircle
 10
-11.18719991017133
 20
19.76321360103611
 30
0.0
 40
1.0
100
AcDbArc
 50
336.9745079915662
 51
45.58469140247172
  0
ARC
  5
193
330
2
100
AcDbEntity
  8
0
100
AcDbCircle
 10
11.18719991017133
 20
19.76321360104703
 30
0.0
 40
1.0
100
AcDbArc
 50
134.4153085975283
 51
203.025492008528
  0
ARC
  5
194
330
2
100
AcDbEntity
  8
0
100
AcDbCircle
 10
192.8128000898287
 20
19.76321360103611
 30
0.0
 40
1.0
100
AcDbArc
 50
336.974507991472
 51
45.58469140247172
  0
ARC
  5
195
330
2
100
AcDbEntity
  8
0
100
AcDbCircle
 10
215.1871999101859
 20
19.76321360104703
 30
0.0
 40
1.0
100
AcDbArc
 50
134.4153085975283
 51
203.025492008528
  0
ARC
  5
19B
330
2
100
AcDbEntity
  8
0
100
AcDbCircle
 10
224.1539142265101
 20
2.5
 30
0.0
 40
2.5
100
AcDbArc
 50
203.0254920084488
 51
270.0
  0
ARC
  5
19C
330
2
100
AcDbEntity
  8
0
100
AcDbCircle
 10
183.8460857734754
 20
2.5
 30
0.0
 40
2.5
100
AcDbArc
 50
270.0
 51
336.9745079915032
  0
ARC
  5
19D
330
2
100
AcDbEntity
  8
0
100
AcDbCircle
 10
20.1539142265101
 20
2.5
 30
0.0
 40
2.5
100
AcDbArc
 50
203.0254920084488
 51
270.0
  0
LINE
  5
1A9
330
2
100
AcDbEntity
  8
0
100
AcDbLine
 10
61.32842712473939
 20
1.999999999996362
 30
0.0
 11
75.6715728752315
 21
2.0
 31
0.0
  0
LINE
  5
1AA
330
2
100
AcDbEntity
  8
0
100
AcDbLine
 10
59.08578643761575
 20
0.5857864376193902
 30
0.0
 11
59.9142135623697
 21
1.414213562373334
 31
0.0
  0
LINE
  5
1AB
330
2
100
AcDbEntity
  8
0
100
AcDbLine
 10
77.0857864376012
 20
1.414213562376972
 30
0.0
 11
77.91421356235514
 21
0.5857864376193902
 31
0.0
  0
ARC
  5
1B0
330
2
100
AcDbEntity
  8
0
100
AcDbCircle
 10
61.32842712473939
 20
-0.000000000003638
 30
0.0
 40
2.0
100
AcDbArc
 50
90.00000000001303
 51
134.9999999998437
  0
ARC
  5
1B1
330
2
100
AcDbEntity
  8
0
100
AcDbCircle
 10
75.6715728752315
 20
0.0
 30
0.0
 40
2.0
100
AcDbArc
 50
45.00000000015633
 51
90.00000000001376
  0
ARC
  5
1B2
330
2
100
AcDbEntity
  8
0
100
AcDbCircle
 10
128.3284271247394
 20
0.0
 30
0.0
 40
2.0
100
AcDbArc
 50
89.99999999998626
 51
134.9999999998437
  0
ARC
  5
1B3
330
2
100
AcDbEntity
  8
0
100
AcDbCircle
 10
142.6715728752315
 20
-0.000000000003638
 30
0.0
 40
2.0
100
AcDbArc
 50
45.00000000015633
 51
89.99999999998698
  0
LINE
  5
1B4
330
2
100
AcDbEntity
  8
0
100
AcDbLine
 10
126.9142135623697
 20
1.414213562376972
 30
0.0
 11
126.0857864376158
 21
0.5857864376230282
 31
0.0
  0
LINE
  5
1B5
330
2
100
AcDbEntity
  8
0
100
AcDbLine
 10
144.9142135623551
 20
0.5857864376193902
 30
0.0
 11
144.0857864376012
 21
1.414213562373334
 31
0.0
  0
LINE
  5
1B6
330
2
100
AcDbEntity
  8
0
100
AcDbLine
 10
142.6715728752315
 20
1.999999999996362
 30
0.0
 11
128.3284271247394
 21
2.0
 31
0.0
  0
LINE
  5
1B7
330
2
100
AcDbEntity
  8
0
100
AcDbLine
 10
146.3284271247248
 20
0.0
 30
0.0
 11
183.8460857734754
 21
0.0
 31
0.0
  0
LINE
  5
1B8
330
2
100
AcDbEntity
  8
0
100
AcDbLine
 10
79.32842712472484
 20
0.0
 30
0.0
 11
124.6715728752461
 21
0.000000000003638
 31
0.0
  0
ARC
  5
1B9
330
2
100
AcDbEntity
  8
0
100
AcDbCircle
 10
57.67157287524606
 20
2.0
 30
0.0
 40
2.0
100
AcDbArc
 50
270.0
 51
314.9999999996315
  0
ARC
  5
1BA
330
2
100
AcDbEntity
  8
0
100
AcDbCircle
 10
79.32842712472484
 20
2.0
 30
0.0
 40
2.0
100
AcDbArc
 50
225.0000000003685
 51
270.0
  0
ARC
  5
1BB
330
2
100
AcDbEntity
  8
0
100
AcDbCircle
 10
124.6715728752461
 20
2.000000000003638
 30
0.0
 40
2.0
100
AcDbArc
 50
270.0
 51
314.9999999996315
  0
ARC
  5
1BC
330
2
100
AcDbEntity
  8
0
100
AcDbCircle
 10
146.3284271247248
 20
2.0
 30
0.0
 40
2.0
100
AcDbArc
 50
225.0000000003685
 51
270.0
  0
ARC
  5
1BD
330
2
100
AcDbEntity
  8
0
100
AcDbCircle
 10
261.6715728752752
 20
2.0
 30
0.0
 40
2.0
100
AcDbArc
 50
270.0
 51
314.9999999996315
  0
ARC
  5
1BE
330
2
100
AcDbEntity
  8
0
100
AcDbCircle
 10
283.3284271247539
 20
2.000000000003638
 30
0.0
 40
2.0
100
AcDbArc
 50
225.0000000003685
 51
270.0
  0
ARC
  5
1BF
330
2
100
AcDbEntity
  8
0
100
AcDbCircle
 10
328.6715728752752
 20
2.0
 30
0.0
 40
2.0
100
AcDbArc
 50
270.0
 51
314.9999999996315
  0
ARC
  5
1C0
330
2
100
AcDbEntity
  8
0
100
AcDbCircle
 10
350.3284271247539
 20
2.0
 30
0.0
 40
2.0
100
AcDbArc
 50
225.0000000003685
 51
270.0
  0
LINE
  5
1C1
330
2
100
AcDbEntity
  8
0
100
AcDbLine
 10
328.6715728752752
 20
0.0
 30
0.0
 11
283.3284271247539
 21
0.000000000003638
 31
0.0
  0
LINE
  5
1C2
330
2
100
AcDbEntity
  8
0
100
AcDbLine
 10
261.6715728752752
 20
0.0
 30
0.0
 11
224.1539142265247
 21
0.0
 31
0.0
  0
LINE
  5
1C3
330
2
100
AcDbEntity
  8
0
100
AcDbLine
 10
265.3284271247685
 20
1.999999999996362
 30
0.0
 11
279.6715728752606
 21
2.0
 31
0.0
  0
LINE
  5
1C4
330
2
100
AcDbEntity
  8
0
100
AcDbLine
 10
263.0857864376449
 20
0.5857864376193902
 30
0.0
 11
263.9142135623988
 21
1.414213562373334
 31
0.0
  0
LINE
  5
1C5
330
2
100
AcDbEntity
  8
0
100
AcDbLine
 10
281.0857864376303
 20
1.414213562376972
 30
0.0
 11
281.9142135623843
 21
0.5857864376230282
 31
0.0
  0
ARC
  5
1C6
330
2
100
AcDbEntity
  8
0
100
AcDbCircle
 10
265.3284271247685
 20
-0.000000000003638
 30
0.0
 40
2.0
100
AcDbArc
 50
90.00000000001302
 51
134.9999999998437
  0
ARC
  5
1C7
330
2
100
AcDbEntity
  8
0
100
AcDbCircle
 10
279.6715728752606
 20
0.0
 30
0.0
 40
2.0
100
AcDbArc
 50
45.00000000015633
 51
90.00000000001376
  0
ARC
  5
1C8
330
2
100
AcDbEntity
  8
0
100
AcDbCircle
 10
332.3284271247685
 20
0.0
 30
0.0
 40
2.0
100
AcDbArc
 50
89.99999999998626
 51
134.9999999998437
  0
ARC
  5
1C9
330
2
100
AcDbEntity
  8
0
100
AcDbCircle
 10
346.6715728752606
 20
-0.000000000003638
 30
0.0
 40
2.0
100
AcDbArc
 50
45.00000000015633
 51
89.99999999998698
  0
LINE
  5
1CA
330
2
100
AcDbEntity
  8
0
100
AcDbLine
 10
330.9142135623988
 20
1.414213562376972
 30
0.0
 11
330.0857864376449
 21
0.5857864376193902
 31
0.0
  0
LINE
  5
1CB
330
2
100
AcDbEntity
  8
0
100
AcDbLine
 10
348.9142135623843
 20
0.5857864376193902
 30
0.0
 11
348.0857864376303
 21
1.414213562373334
 31
0.0
  0
LINE
  5
1CC
330
2
100
AcDbEntity
  8
0
100
AcDbLine
 10
346.6715728752606
 20
1.999999999996362
 30
0.0
 11
332.3284271247685
 21
2.0
 31
0.0
  0
LINE
  5
1CD
330
2
100
AcDbEntity
  8
0
100
AcDbLine
 10
387.8460857735045
 20
-0.000000000003638
 30
0.0
 11
350.3284271247539
 21
0.0
 31
0.0
  0
ARC
  5
1CE
330
2
100
AcDbEntity
  8
0
100
AcDbCircle
 10
387.8460857735045
 20
2.499999999996362
 30
0.0
 40
2.5
100
AcDbArc
 50
270.0
 51
336.974507991459
  0
ARC
  5
1DD
330
2
100
AcDbEntity
  8
0
100
AcDbCircle
 10
194.220433680428
 20
23.28401998435584
 30
0.0
 40
2.5
100
AcDbArc
 50
156.6916885125164
 51
225.5846914021148
  0
ARC
  5
1DE
330
2
100
AcDbEntity
  8
0
100
AcDbCircle
 10
200.3452467765746
 20
37.5
 30
0.0
 40
2.5
100
AcDbArc
 50
90.0
 51
156.6916885124853
  0
ARC
  5
1DF
330
2
100
AcDbEntity
  8
0
100
AcDbCircle
 10
207.6547532234545
 20
37.5
 30
0.0
 40
2.5
100
AcDbArc
 50
23.30831148743541
 51
90.0
  0
ARC
  5
1E0
330
2
100
AcDbEntity
  8
0
100
AcDbCircle
 10
213.7795663195575
 20
23.28401998434492
 30
0.0
 40
2.5
100
AcDbArc
 50
314.415308597206
 51
23.30831148740351
  0
LINE
  5
1E1
330
2
100
AcDbEntity
  8
0
100
AcDbLine
 10
-10.48734569795488
 20
20.47749931531871
 30
0.0
 11
-11.5292018501641
 21
21.4983056986639
 31
0.0
  0
ARC
  5
1E2
330
2
100
AcDbEntity
  8
0
100
AcDbCircle
 10
-9.779566319586593
 20
23.28401998435584
 30
0.0
 40
2.5
100
AcDbArc
 50
156.6916885125164
 51
225.5846914021148
  0
LINE
  5
1E3
330
2
100
AcDbEntity
  8
0
100
AcDbLine
 10
-12.07553880142223
 20
24.27321681141984
 30
0.0
 11
-5.950725705275545
 21
38.48919682706401
 31
0.0
  0
ARC
  5
1E4
330
2
100
AcDbEntity
  8
0
100
AcDbCircle
 10
9.779566319542937
 20
23.28401998434492
 30
0.0
 40
2.5
100
AcDbArc
 50
314.415308597206
 51
23.30831148740351
  0
LINE
  5
1E5
330
2
100
AcDbEntity
  8
0
100
AcDbLine
 10
12.07553880137857
 20
24.27321681140529
 30
0.0
 11
5.950725705275545
 21
38.48919682706037
 31
0.0
  0
LINE
  5
1E6
330
2
100
AcDbEntity
  8
0
100
AcDbLine
 10
10.48734569794033
 20
20.47749931532962
 30
0.0
 11
11.52920185010589
 21
21.49830569863116
 31
0.0
  0
ARC
  5
1E7
330
2
100
AcDbEntity
  8
0
100
AcDbCircle
 10
3.654753223439911
 20
37.5
 30
0.0
 40
2.5
100
AcDbArc
 50
23.30831148743541
 51
90.0
  0
ARC
  5
1E8
330
2
100
AcDbEntity
  8
0
100
AcDbCircle
 10
-3.654753223439911
 20
37.5
 30
0.0
 40
2.5
100
AcDbArc
 50
90.0
 51
156.6916885124853
  0
LINE
  5
1E9
330
2
100
AcDbEntity
  8
0
100
AcDbLine
 10
-3.654753223439911
 20
40.0
 30
0.0
 11
3.654753223439911
 21
40.0
 31
0.0
  0
LINE
  5
1EA
330
2
100
AcDbEntity
  8
0
100
AcDbLine
 10
397.5126543020888
 20
20.47749931531507
 30
0.0
 11
396.4707981498796
 21
21.49830569866026
 31
0.0
  0
ARC
  5
1EB
330
2
100
AcDbEntity
  8
0
100
AcDbCircle
 10
398.2204336804571
 20
23.2840199843522
 30
0.0
 40
2.5
100
AcDbArc
 50
156.6916885125164
 51
225.5846914021148
  0
LINE
  5
1EC
330
2
100
AcDbEntity
  8
0
100
AcDbLine
 10
395.9244611986214
 20
24.27321681141621
 30
0.0
 11
402.0492742947681
 21
38.48919682706037
 31
0.0
  0
LINE
  5
1EE
330
2
100
AcDbEntity
  8
0
100
AcDbLine
 10
418.4795277138182
 20
27.97763380668403
 30
0.0
 11
413.9507257053192
 21
38.48919682705673
 31
0.0
  0
ARC
  5
1F0
330
2
100
AcDbEntity
  8
0
100
AcDbCircle
 10
411.6547532234836
 20
37.49999999999636
 30
0.0
 40
2.5
100
AcDbArc
 50
23.30831148743541
 51
90.0
  0
ARC
  5
1F1
330
2
100
AcDbEntity
  8
0
100
AcDbCircle
 10
404.3452467766037
 20
37.49999999999636
 30
0.0
 40
2.5
100
AcDbArc
 50
90.0
 51
156.6916885124853
  0
LINE
  5
1F2
330
2
100
AcDbEntity
  8
0
100
AcDbLine
 10
404.3452467766037
 20
39.99999999999636
 30
0.0
 11
411.6547532234836
 21
39.99999999999636
 31
0.0
  0
ENDSEC
  0
SECTION
  2
OBJECTS
  0
DICTIONARY
  5
9
330
0
100
AcDbDictionary
281
     1
  3
ACAD_COLOR
350
2E
  3
ACAD_GROUP
350
23
  3
ACAD_LAYOUT
350
D
  3
ACAD_MATERIAL
350
2D
  3
ACAD_MLINESTYLE
350
24
  3
ACAD_PLOTSETTINGS
350
25
  3
ACAD_PLOTSTYLENAME
350
8
  3
ACDBHEADERROUNDTRIPXREC
350
201
  3
AcDbVariableDictionary
350
29
  0
DICTIONARY
  5
2E
102
{ACAD_REACTORS
330
9
102
}
330
9
100
AcDbDictionary
281
     1
  0
DICTIONARY
  5
23
102
{ACAD_REACTORS
330
9
102
}
330
9
100
AcDbDictionary
281
     1
  0
DICTIONARY
  5
D
102
{ACAD_REACTORS
330
9
102
}
330
9
100
AcDbDictionary
281
     1
  3
Layout1
350
13
  3
Model
350
C
  0
DICTIONARY
  5
2D
102
{ACAD_REACTORS
330
9
102
}
330
9
100
AcDbDictionary
281
     1
  0
DICTIONARY
  5
24
102
{ACAD_REACTORS
330
9
102
}
330
9
100
AcDbDictionary
281
     1
  3
STANDARD
350
26
  0
DICTIONARY
  5
25
102
{ACAD_REACTORS
330
9
102
}
330
9
100
AcDbDictionary
281
     1
  0
ACDBDICTIONARYWDFLT
  5
8
102
{ACAD_REACTORS
330
9
102
}
330
9
100
AcDbDictionary
281
     1
  3
Normal
350
7
100
AcDbDictionaryWithDefault
340
7
  0
DICTIONARY
  5
201
102
{ACAD_REACTORS
330
9
102
}
330
9
100
AcDbDictionary
281
     1
  3
COLORDICT
350
202
  3
MATERIALDICT
350
203
  0
DICTIONARY
  5
29
102
{ACAD_REACTORS
330
9
102
}
330
9
100
AcDbDictionary
281
     1
  3
DIMASSOC
350
2B
  3
HIDETEXT
350
2A
  3
SORTENTS
350
200
  0
LAYOUT
  5
13
102
{ACAD_REACTORS
330
D
102
}
102
{ACAD_XDICTIONARY
360
36
102
}
330
D
100
AcDbPlotSettings
  1

  2
C:\PROGRAM FILES\ACAD2000\plotters\DesignJet 350C C4699A.pc3
  4

  6

 40
0.0
 41
0.0
 42
0.0
 43
0.0
 44
0.0
 45
0.0
 46
0.0
 47
0.0
 48
0.0
 49
0.0
140
0.0
141
0.0
142
1.0
143
1.0
 70
   688
 72
     0
 73
     0
 74
     5
  7
A3-SinglePen.ctb
 75
    16
147
1.0
148
0.0
149
0.0
100
AcDbLayout
  1
Layout1
 70
     0
 71
     1
 10
0.0
 20
0.0
 11
803.0
 21
574.0
 12
0.0
 22
0.0
 32
0.0
 14
0.0
 24
0.0
 34
0.0
 15
801.0
 25
575.0
 35
0.0
146
0.0
 13
0.0
 23
0.0
 33
0.0
 16
1.0
 26
0.0
 36
0.0
 17
0.0
 27
1.0
 37
0.0
 76
     0
330
E
  0
LAYOUT
  5
C
102
{ACAD_REACTORS
330
D
102
}
102
{ACAD_XDICTIONARY
360
34
102
}
330
D
100
AcDbPlotSettings
  1

  2
LANIER A3
  4
A3
  6

 40
6.805083274841309
 41
5.027085304260254
 42
7.228424072265625
 43
5.027069091796875
 44
296.9259948730469
 45
419.9466552734375
 46
0.0
 47
0.0
 48
103860.2873965428
 49
22494.00599669256
140
104751.6156148239
141
22868.60008005934
142
1.0
143
1.0
 70
 11936
 72
     1
 73
     1
 74
     4
  7
A3-SinglePen.ctb
 75
     0
147
1.0
148
-103860.2873965428
149
-22494.00599669256
100
AcDbLayout
  1
Model
 70
     1
 71
     0
 10
0.0
 20
0.0
 11
12.0
 21
9.0
 12
0.0
 22
0.0
 32
0.0
 14
0.0
 24
0.0
 34
0.0
 15
0.0
 25
0.0
 35
0.0
146
0.0
 13
0.0
 23
0.0
 33
0.0
 16
1.0
 26
0.0
 36
0.0
 17
0.0
 27
1.0
 37
0.0
 76
     0
330
2
  0
MLINESTYLE
  5
26
102
{ACAD_REACTORS
330
24
102
}
330
24
100
AcDbMlineStyle
  2
STANDARD
 70
     0
  3

 62
     0
 51
90.0
 52
90.0
 71
     2
 49
0.5
 62
   256
  6
BYLAYER
 49
-0.5
 62
   256
  6
BYLAYER
  0
ACDBPLACEHOLDER
  5
7
102
{ACAD_REACTORS
330
8
102
}
330
8
  0
XRECORD
  5
202
102
{ACAD_REACTORS
330
201
102
}
330
201
100
AcDbXrecord
280
     1
340
2E
  0
XRECORD
  5
203
102
{ACAD_REACTORS
330
201
102
}
330
201
100
AcDbXrecord
280
     1
340
2D
  0
DICTIONARYVAR
  5
2B
102
{ACAD_REACTORS
330
29
102
}
330
29
100
DictionaryVariables
280
     0
  1
2
  0
DICTIONARYVAR
  5
2A
102
{ACAD_REACTORS
330
29
102
}
330
29
100
DictionaryVariables
280
     0
  1
1
  0
DICTIONARYVAR
  5
200
102
{ACAD_REACTORS
330
29
102
}
330
29
100
DictionaryVariables
280
     0
  1
35
  0
DICTIONARY
  5
36
330
13
100
AcDbDictionary
280
     1
281
     1
  0
DICTIONARY
  5
34
330
C
100
AcDbDictionary
280
     1
281
     1
  0
ENDSEC
  0
EOF
