  0
SECTION
  2
HEADER
  9
$ACADVER
  1
AC1015
  9
$ACADMAINTVER
 70
     6
  9
$DWGCODEPAGE
  3
ANSI_1252
  9
$INSBASE
 10
0.0
 20
0.0
 30
0.0
  9
$EXTMIN
 10
-21.23931266901491
 20
-0.3675896459923429
 30
0.0
  9
$EXTMAX
 10
790.1937065869715
 20
29.62492758004354
 30
0.0
  9
$LIMMIN
 10
0.0
 20
0.0
  9
$LIMMAX
 10
80300.0
 20
57400.0
  9
$ORTHOMODE
 70
     0
  9
$REGENMODE
 70
     1
  9
$FILLMODE
 70
     1
  9
$QTEXTMODE
 70
     0
  9
$MIRRTEXT
 70
     0
  9
$LTSCALE
 40
500.0
  9
$ATTMODE
 70
     1
  9
$TEXTSIZE
 40
75.0
  9
$TRACEWID
 40
0.05
  9
$TEXTSTYLE
  7
STANDARD
  9
$CLAYER
  8
0
  9
$CELTYPE
  6
BYLAYER
  9
$CECOLOR
 62
   256
  9
$CELTSCALE
 40
1.0
  9
$DISPSILH
 70
     0
  9
$DIMSCALE
 40
10.0
  9
$DIMASZ
 40
2.0
  9
$DIMEXO
 40
2.0
  9
$DIMDLI
 40
0.0
  9
$DIMRND
 40
0.0
  9
$DIMDLE
 40
5.0
  9
$DIMEXE
 40
5.0
  9
$DIMTP
 40
0.0
  9
$DIMTM
 40
0.0
  9
$DIMTXT
 40
3.0
  9
$DIMCEN
 40
0.0
  9
$DIMTSZ
 40
0.0
  9
$DIMTOL
 70
     0
  9
$DIMLIM
 70
     0
  9
$DIMTIH
 70
     0
  9
$DIMTOH
 70
     0
  9
$DIMSE1
 70
     0
  9
$DIMSE2
 70
     0
  9
$DIMTAD
 70
     1
  9
$DIMZIN
 70
     0
  9
$DIMBLK
  1

  9
$DIMASO
 70
     1
  9
$DIMSHO
 70
     1
  9
$DIMPOST
  1

  9
$DIMAPOST
  1

  9
$DIMALT
 70
     0
  9
$DIMALTD
 70
     0
  9
$DIMALTF
 40
25.4
  9
$DIMLFAC
 40
1.0
  9
$DIMTOFL
 70
     1
  9
$DIMTVP
 40
0.0
  9
$DIMTIX
 70
     0
  9
$DIMSOXD
 70
     0
  9
$DIMSAH
 70
     0
  9
$DIMBLK1
  1

  9
$DIMBLK2
  1

  9
$DIMSTYLE
  2
STANDARD
  9
$DIMCLRD
 70
   256
  9
$DIMCLRE
 70
   256
  9
$DIMCLRT
 70
   256
  9
$DIMTFAC
 40
0.3333333333333333
  9
$DIMGAP
 40
2.0
  9
$DIMJUST
 70
     0
  9
$DIMSD1
 70
     0
  9
$DIMSD2
 70
     0
  9
$DIMTOLJ
 70
     1
  9
$DIMTZIN
 70
     0
  9
$DIMALTZ
 70
     0
  9
$DIMALTTZ
 70
     0
  9
$DIMUPT
 70
     0
  9
$DIMDEC
 70
     4
  9
$DIMTDEC
 70
     4
  9
$DIMALTU
 70
     2
  9
$DIMALTTD
 70
     2
  9
$DIMTXSTY
  7
STANDARD
  9
$DIMAUNIT
 70
     0
  9
$DIMADEC
 70
     0
  9
$DIMALTRND
 40
0.0
  9
$DIMAZIN
 70
     0
  9
$DIMDSEP
 70
    46
  9
$DIMATFIT
 70
     3
  9
$DIMFRAC
 70
     0
  9
$DIMLDRBLK
  1

  9
$DIMLUNIT
 70
     2
  9
$DIMLWD
 70
    -2
  9
$DIMLWE
 70
    -2
  9
$DIMTMOVE
 70
     0
  9
$LUNITS
 70
     2
  9
$LUPREC
 70
     0
  9
$SKETCHINC
 40
50.0
  9
$FILLETRAD
 40
0.0
  9
$AUNITS
 70
     0
  9
$AUPREC
 70
     2
  9
$MENU
  1
C:\AutoCAD\R13\win\SUPPORT\ACAD
  9
$ELEVATION
 40
0.0
  9
$PELEVATION
 40
0.0
  9
$THICKNESS
 40
0.0
  9
$LIMCHECK
 70
     0
  9
$CHAMFERA
 40
0.0
  9
$CHAMFERB
 40
0.0
  9
$CHAMFERC
 40
0.0
  9
$CHAMFERD
 40
0.0
  9
$SKPOLY
 70
     0
  9
$TDCREATE
 40
2450734.229041782
  9
$TDUCREATE
 40
2450733.833208449
  9
$TDUPDATE
 40
2453207.277478959
  9
$TDUUPDATE
 40
2453206.881645625
  9
$TDINDWG
 40
0.3329513657
  9
$TDUSRTIMER
 40
0.3329513657
  9
$USRTIMER
 70
     1
  9
$ANGBASE
 50
0.0
  9
$ANGDIR
 70
     0
  9
$PDMODE
 70
     3
  9
$PDSIZE
 40
100.0
  9
$PLINEWID
 40
0.0
  9
$SPLFRAME
 70
     0
  9
$SPLINETYPE
 70
     6
  9
$SPLINESEGS
 70
     8
  9
$HANDSEED
  5
1B5
  9
$SURFTAB1
 70
     6
  9
$SURFTAB2
 70
     6
  9
$SURFTYPE
 70
     6
  9
$SURFU
 70
     6
  9
$SURFV
 70
     6
  9
$UCSBASE
  2

  9
$UCSNAME
  2

  9
$UCSORG
 10
0.0
 20
0.0
 30
0.0
  9
$UCSXDIR
 10
1.0
 20
0.0
 30
0.0
  9
$UCSYDIR
 10
0.0
 20
1.0
 30
0.0
  9
$UCSORTHOREF
  2

  9
$UCSORTHOVIEW
 70
     0
  9
$UCSORGTOP
 10
0.0
 20
0.0
 30
0.0
  9
$UCSORGBOTTOM
 10
0.0
 20
0.0
 30
0.0
  9
$UCSORGLEFT
 10
0.0
 20
0.0
 30
0.0
  9
$UCSORGRIGHT
 10
0.0
 20
0.0
 30
0.0
  9
$UCSORGFRONT
 10
0.0
 20
0.0
 30
0.0
  9
$UCSORGBACK
 10
0.0
 20
0.0
 30
0.0
  9
$PUCSBASE
  2

  9
$PUCSNAME
  2

  9
$PUCSORG
 10
0.0
 20
0.0
 30
0.0
  9
$PUCSXDIR
 10
1.0
 20
0.0
 30
0.0
  9
$PUCSYDIR
 10
0.0
 20
1.0
 30
0.0
  9
$PUCSORTHOREF
  2

  9
$PUCSORTHOVIEW
 70
     0
  9
$PUCSORGTOP
 10
0.0
 20
0.0
 30
0.0
  9
$PUCSORGBOTTOM
 10
0.0
 20
0.0
 30
0.0
  9
$PUCSORGLEFT
 10
0.0
 20
0.0
 30
0.0
  9
$PUCSORGRIGHT
 10
0.0
 20
0.0
 30
0.0
  9
$PUCSORGFRONT
 10
0.0
 20
0.0
 30
0.0
  9
$PUCSORGBACK
 10
0.0
 20
0.0
 30
0.0
  9
$USERI1
 70
     0
  9
$USERI2
 70
     0
  9
$USERI3
 70
     0
  9
$USERI4
 70
     0
  9
$USERI5
 70
     0
  9
$USERR1
 40
0.0
  9
$USERR2
 40
0.0
  9
$USERR3
 40
0.0
  9
$USERR4
 40
0.0
  9
$USERR5
 40
100.0
  9
$WORLDVIEW
 70
     1
  9
$SHADEDGE
 70
     3
  9
$SHADEDIF
 70
    70
  9
$TILEMODE
 70
     1
  9
$MAXACTVP
 70
    16
  9
$PINSBASE
 10
0.0
 20
0.0
 30
0.0
  9
$PLIMCHECK
 70
     0
  9
$PEXTMIN
 10
0.0
 20
0.0
 30
0.0
  9
$PEXTMAX
 10
801.0
 20
575.0
 30
0.0
  9
$PLIMMIN
 10
0.0
 20
0.0
  9
$PLIMMAX
 10
803.0
 20
574.0
  9
$UNITMODE
 70
     0
  9
$VISRETAIN
 70
     0
  9
$PLINEGEN
 70
     1
  9
$PSLTSCALE
 70
     0
  9
$TREEDEPTH
 70
  3020
  9
$CMLSTYLE
  2
STANDARD
  9
$CMLJUST
 70
     0
  9
$CMLSCALE
 40
1.0
  9
$PROXYGRAPHICS
 70
     1
  9
$MEASUREMENT
 70
     1
  9
$CELWEIGHT
370
    -1
  9
$ENDCAPS
280
     0
  9
$JOINSTYLE
280
     0
  9
$LWDISPLAY
290
     0
  9
$INSUNITS
 70
     0
  9
$HYPERLINKBASE
  1

  9
$STYLESHEET
  1

  9
$XEDIT
290
     1
  9
$CEPSNTYPE
380
     0
  9
$PSTYLEMODE
290
     1
  9
$FINGERPRINTGUID
  2
{FD5FAFEF-C7D7-11D5-9AB3-006067068FD3}
  9
$VERSIONGUID
  2
{5F17196F-11B5-4709-AC9E-F674F2215472}
  9
$EXTNAMES
290
     1
  9
$PSVPSCALE
 40
0.0
  9
$OLESTARTUP
290
     0
  0
ENDSEC
  0
SECTION
  2
CLASSES
  0
CLASS
  1
LWPOLYLINE
  2
AcDbPolyline
  3
AutoCAD 2000
 90
        0
280
     0
281
     1
  0
CLASS
  1
DICTIONARYVAR
  2
AcDbDictionaryVar
  3
ObjectDBX Classes
 90
        0
280
     0
281
     0
  0
CLASS
  1
ACDBDICTIONARYWDFLT
  2
AcDbDictionaryWithDefault
  3
ObjectDBX Classes
 90
        0
280
     0
281
     0
  0
CLASS
  1
ACDBPLACEHOLDER
  2
AcDbPlaceHolder
  3
ObjectDBX Classes
 90
        0
280
     0
281
     0
  0
CLASS
  1
LAYOUT
  2
AcDbLayout
  3
ObjectDBX Classes
 90
        0
280
     0
281
     0
  0
CLASS
  1
LONG_TRANSACTION
  2
AcDbLongTransaction
  3
AutoCAD 2000
 90
   -65536
280
     1
281
     0
  0
CLASS
  1
LWPOLYLINE
  2
AcDbPolyline
  3
AutoCAD 2000
 90
        0
280
     0
281
     1
  0
CLASS
  1
HATCH
  2
AcDbHatch
  3
AutoCAD 2000
 90
        0
280
     0
281
     1
  0
CLASS
  1
XRECORD
  2
AcDbXrecord
  3
AutoCAD 2000
 90
        0
280
     0
281
     0
  0
ENDSEC
  0
SECTION
  2
TABLES
  0
TABLE
  2
VPORT
  5
1D
330
0
100
AcDbSymbolTable
 70
     2
  0
VPORT
  5
1B0
330
1D
100
AcDbSymbolTableRecord
100
AcDbViewportTableRecord
  2
*Active
 70
     0
 10
0.0
 20
0.0
 11
1.0
 21
1.0
 12
386.3427801080272
 22
17.67910482466994
 13
0.0
 23
0.0
 14
5.0
 24
5.0
 15
10.0
 25
10.0
 16
0.0
 26
0.0
 36
1.0
 17
0.0
 27
0.0
 37
0.0
 40
95.37312774006
 41
1.516372795969774
 42
50.0
 43
0.0
 44
0.0
 50
0.0
 51
0.0
 71
     0
 72
   100
 73
     1
 74
     0
 75
     0
 76
     0
 77
     0
 78
     2
281
     0
 65
     1
110
0.0
120
0.0
130
0.0
111
1.0
121
0.0
131
0.0
112
0.0
122
1.0
132
0.0
 79
     0
146
0.0
  0
ENDTAB
  0
TABLE
  2
LTYPE
  5
18
330
0
100
AcDbSymbolTable
 70
     1
  0
LTYPE
  5
19
330
18
100
AcDbSymbolTableRecord
100
AcDbLinetypeTableRecord
  2
BYBLOCK
 70
     0
  3

 72
    65
 73
     0
 40
0.0
  0
LTYPE
  5
1A
330
18
100
AcDbSymbolTableRecord
100
AcDbLinetypeTableRecord
  2
BYLAYER
 70
     0
  3

 72
    65
 73
     0
 40
0.0
  0
LTYPE
  5
A
330
18
100
AcDbSymbolTableRecord
100
AcDbLinetypeTableRecord
  2
CONTINUOUS
 70
     0
  3
Solid line
 72
    65
 73
     0
 40
0.0
  0
ENDTAB
  0
TABLE
  2
LAYER
  5
14
330
0
100
AcDbSymbolTable
 70
     1
  0
LAYER
  5
6
330
14
100
AcDbSymbolTableRecord
100
AcDbLayerTableRecord
  2
0
 70
     0
 62
     7
  6
CONTINUOUS
370
    -3
390
7
  0
ENDTAB
  0
TABLE
  2
STYLE
  5
15
330
0
100
AcDbSymbolTable
 70
     1
  0
STYLE
  5
16
330
15
100
AcDbSymbolTableRecord
100
AcDbTextStyleTableRecord
  2
STANDARD
 70
     0
 40
0.0
 41
1.0
 50
0.0
 71
     0
 42
75.0
  3
isocp.shx
  4

  0
ENDTAB
  0
TABLE
  2
VIEW
  5
1B
330
0
100
AcDbSymbolTable
 70
     0
  0
ENDTAB
  0
TABLE
  2
UCS
  5
1C
330
0
100
AcDbSymbolTable
 70
     0
  0
ENDTAB
  0
TABLE
  2
APPID
  5
1F
330
0
100
AcDbSymbolTable
 70
     1
  0
APPID
  5
20
330
1F
100
AcDbSymbolTableRecord
100
AcDbRegAppTableRecord
  2
ACAD
 70
     0
  0
ENDTAB
  0
TABLE
  2
DIMSTYLE
  5
21
330
0
100
AcDbSymbolTable
 70
     1
100
AcDbDimStyleTable
  0
DIMSTYLE
105
27
330
21
100
AcDbSymbolTableRecord
100
AcDbDimStyleTableRecord
  2
STANDARD
 70
     0
271
     0
272
     0
279
     2
340
16
  0
ENDTAB
  0
TABLE
  2
BLOCK_RECORD
  5
1
330
0
100
AcDbSymbolTable
 70
     0
  0
BLOCK_RECORD
  5
2
330
1
100
AcDbSymbolTableRecord
100
AcDbBlockTableRecord
  2
*MODEL_SPACE
340
C
  0
BLOCK_RECORD
  5
E
330
1
100
AcDbSymbolTableRecord
100
AcDbBlockTableRecord
  2
*PAPER_SPACE
340
13
  0
ENDTAB
  0
ENDSEC
  0
SECTION
  2
BLOCKS
  0
BLOCK
  5
5
330
2
100
AcDbEntity
  8
0
100
AcDbBlockBegin
  2
*MODEL_SPACE
 70
     0
 71
     0
 10
0.0
 20
0.0
 30
0.0
  3
*MODEL_SPACE
  1

  0
ENDBLK
  5
B
330
2
100
AcDbEntity
  8
0
100
AcDbBlockEnd
  0
BLOCK
  5
11
330
E
100
AcDbEntity
 67
     1
  8
0
100
AcDbBlockBegin
  2
*PAPER_SPACE
 70
     0
 71
     0
 10
0.0
 20
0.0
 30
0.0
  3
*PAPER_SPACE
  1

  0
ENDBLK
  5
12
330
E
100
AcDbEntity
 67
     1
  8
0
100
AcDbBlockEnd
  0
ENDSEC
  0
SECTION
  2
ENTITIES
  0
LINE
  5
46
330
2
100
AcDbEntity
  8
0
100
AcDbLine
 10
-21.23931266901491
 20
14.57265419304895
 30
0.0
 11
-16.22280401979515
 21
25.31090817589939
 31
0.0
  0
ARC
  5
47
330
2
100
AcDbEntity
  8
0
100
AcDbCircle
 10
-13.05766401422443
 20
22.8651181715868
 30
0.0
 40
4.000000000007447
100
AcDbArc
 50
108.5710030427741
 51
142.3057595332209
  0
ARC
  5
48
330
2
100
AcDbEntity
  8
0
100
AcDbCircle
 10
0.0000000000145519
 20
-15.99999999990905
 30
0.0
 40
44.99999999992853
100
AcDbArc
 50
71.42899695725966
 51
108.5710030427784
  0
ARC
  5
49
330
2
100
AcDbEntity
  8
0
100
AcDbCircle
 10
13.05766401422443
 20
22.86511817156861
 30
0.0
 40
4.000000000036961
100
AcDbArc
 50
37.69424046694033
 51
71.42899695734207
  0
LINE
  5
4A
330
2
100
AcDbEntity
  8
0
100
AcDbLine
 10
16.2228040198097
 20
25.31090817590666
 30
0.0
 11
31.2990195487655
 21
1.554209995701967
 31
0.0
  0
ARC
  5
4B
330
2
100
AcDbEntity
  8
0
100
AcDbCircle
 10
34.46415955432167
 20
4.000000000007276
 30
0.0
 40
3.999999999991483
100
AcDbArc
 50
217.6942404668241
 51
270.0000000002084
  0
LINE
  5
4C
330
2
100
AcDbEntity
  8
0
100
AcDbLine
 10
34.46415955433622
 20
0.000000000003638
 30
0.0
 11
55.11893408675678
 21
0.000000000007276
 31
0.0
  0
LINE
  5
4E
330
2
100
AcDbEntity
  8
0
100
AcDbLine
 10
55.38069890582119
 20
0.0098024154140148
 30
0.0
 11
94.98823520727456
 21
2.980367638567259
 31
0.0
  0
LINE
  5
50
330
2
100
AcDbEntity
  8
0
100
AcDbLine
 10
95.51176484496682
 20
2.980367638600001
 30
0.0
 11
135.1193011619762
 21
0.009802415381273
 31
0.0
  0
ARC
  5
51
330
2
100
AcDbEntity
  8
0
100
AcDbCircle
 10
137.6497896534711
 20
3.999999999716238
 30
0.0
 40
3.999999999708711
100
AcDbArc
 50
265.7108466748626
 51
270.0000000004169
  0
LINE
  5
52
330
2
100
AcDbEntity
  8
0
100
AcDbLine
 10
135.381065980604
 20
0.000000000007276
 30
0.0
 11
156.0358404456492
 21
0.000000000007276
 31
0.0
  0
ARC
  5
53
330
2
100
AcDbEntity
  8
0
100
AcDbCircle
 10
156.0358404456492
 20
4.000000000007276
 30
0.0
 40
4.0
100
AcDbArc
 50
270.0
 51
322.3057595333445
  0
LINE
  5
54
330
2
100
AcDbEntity
  8
0
100
AcDbLine
 10
159.20098045122
 20
1.554209995705605
 30
0.0
 11
174.2771959802194
 21
25.3109081759103
 31
0.0
  0
ARC
  5
55
330
2
100
AcDbEntity
  8
0
100
AcDbCircle
 10
177.442335985761
 20
22.86511817163409
 30
0.0
 40
3.999999999962173
100
AcDbArc
 50
108.5710030425947
 51
142.3057595333783
  0
ARC
  5
56
330
2
100
AcDbEntity
  8
0
100
AcDbCircle
 10
190.5000000000291
 20
-16.00000000032742
 30
0.0
 40
45.00000000032512
100
AcDbArc
 50
71.42899695744687
 51
108.5710030426088
  0
ARC
  5
57
330
2
100
AcDbEntity
  8
0
100
AcDbCircle
 10
203.557664014239
 20
22.86511817160499
 30
0.0
 40
3.99999999999784
100
AcDbArc
 50
37.69424046665544
 51
71.4289969573737
  0
LINE
  5
58
330
2
100
AcDbEntity
  8
0
100
AcDbLine
 10
206.7228040198097
 20
25.31090817590666
 30
0.0
 11
221.7990195487655
 21
1.554209995701967
 31
0.0
  0
LINE
  5
7E
330
2
100
AcDbEntity
  8
0
100
AcDbLine
 10
730.70098045122
 20
1.554209995749261
 30
0.0
 11
738.3573830893438
 21
15.70879737598079
 31
0.0
  0
ARC
  5
7F
330
2
100
AcDbEntity
  8
0
100
AcDbCircle
 10
741.5225231356017
 20
13.26300734023971
 30
0.0
 40
4.000000051419459
100
AcDbArc
 50
120.4663390902265
 51
142.3057595333521
  0
ARC
  5
80
330
2
100
AcDbEntity
  8
0
100
AcDbCircle
 10
720.4192844336358
 20
49.13737529738137
 30
0.0
 40
37.62111189957018
100
AcDbArc
 50
300.466339090233
 51
323.1091716532029
  0
ARC
  5
81
330
2
100
AcDbEntity
  8
0
100
AcDbCircle
 10
753.707049016055
 20
24.15254611888668
 30
0.0
 40
4.00000005065281
100
AcDbArc
 50
101.6695644208676
 51
143.1091716532908
  0
ARC
  5
82
330
2
100
AcDbEntity
  8
0
100
AcDbCircle
 10
762.0000000497676
 20
-15.99999917482637
 30
0.0
 40
44.99999920200422
100
AcDbArc
 50
71.4289966827546
 51
101.6695644208725
  0
ARC
  5
83
330
2
100
AcDbEntity
  8
0
100
AcDbCircle
 10
775.0576639759238
 20
22.86511811779928
 30
0.0
 40
4.000000063245858
100
AcDbArc
 50
37.69424074142399
 51
71.42899668278102
  0
LINE
  5
84
330
2
100
AcDbEntity
  8
0
100
AcDbLine
 10
778.2228040198097
 20
25.31090817595032
 30
0.0
 11
784.6926235551073
 21
9.178250551121892
 31
0.0
  0
ARC
  5
85
330
2
100
AcDbEntity
  8
0
100
AcDbCircle
 10
786.2751935578999
 20
10.40114555327091
 30
0.0
 40
2.000000000005032
100
AcDbArc
 50
217.6942404664867
 51
295.4345458155561
  0
LINE
  5
86
330
2
100
AcDbEntity
  8
0
100
AcDbLine
 10
787.134152979459
 20
8.59499253868853
 30
0.0
 11
790.1937065869715
 21
10.05003669925281
 31
0.0
  0
ARC
  5
8B
330
2
100
AcDbEntity
  8
0
100
AcDbCircle
 10
55.11893408675678
 20
3.500000000007276
 30
0.0
 40
3.5
100
AcDbArc
 50
270.00000000001
 51
274.2891533324612
  0
ARC
  5
8D
330
2
100
AcDbEntity
  8
0
100
AcDbCircle
 10
135.381065980604
 20
3.500000000007276
 30
0.0
 40
3.5
100
AcDbArc
 50
265.710846674846
 51
270.0
  0
ARC
  5
8E
330
2
100
AcDbEntity
  8
0
100
AcDbCircle
 10
95.25000002633897
 20
-0.5098299460260023
 30
0.0
 40
3.5
100
AcDbArc
 50
85.71084667485157
 51
94.28915333248173
  0
ARC
  5
8F
330
2
100
AcDbEntity
  8
0
100
AcDbCircle
 10
285.750000026339
 20
-0.5098299460260023
 30
0.0
 40
3.5
100
AcDbArc
 50
85.71084667485157
 51
94.28915333248173
  0
ARC
  5
90
330
2
100
AcDbEntity
  8
0
100
AcDbCircle
 10
325.881065980604
 20
3.500000000007276
 30
0.0
 40
3.5
100
AcDbArc
 50
265.710846674846
 51
270.0
  0
ARC
  5
91
330
2
100
AcDbEntity
  8
0
100
AcDbCircle
 10
245.6189340867568
 20
3.500000000007276
 30
0.0
 40
3.5
100
AcDbArc
 50
270.00000000001
 51
274.2891533324612
  0
ARC
  5
92
330
2
100
AcDbEntity
  8
0
100
AcDbCircle
 10
346.5358404456492
 20
4.000000000007276
 30
0.0
 40
4.0
100
AcDbArc
 50
270.0
 51
322.3057595333445
  0
LINE
  5
93
330
2
100
AcDbEntity
  8
0
100
AcDbLine
 10
325.881065980604
 20
0.000000000007276
 30
0.0
 11
346.5358404456492
 21
0.000000000007276
 31
0.0
  0
ARC
  5
94
330
2
100
AcDbEntity
  8
0
100
AcDbCircle
 10
328.1497896534711
 20
3.999999999716238
 30
0.0
 40
3.999999999708711
100
AcDbArc
 50
265.7108466748626
 51
270.0000000004169
  0
LINE
  5
95
330
2
100
AcDbEntity
  8
0
100
AcDbLine
 10
286.0117648449668
 20
2.980367638600001
 30
0.0
 11
325.6193011619762
 21
0.009802415381273
 31
0.0
  0
LINE
  5
96
330
2
100
AcDbEntity
  8
0
100
AcDbLine
 10
245.8806989058212
 20
0.0098024154140148
 30
0.0
 11
285.4882352072746
 21
2.980367638567259
 31
0.0
  0
LINE
  5
97
330
2
100
AcDbEntity
  8
0
100
AcDbLine
 10
224.9641595543362
 20
0.000000000003638
 30
0.0
 11
245.6189340867568
 21
0.000000000007276
 31
0.0
  0
ARC
  5
98
330
2
100
AcDbEntity
  8
0
100
AcDbCircle
 10
224.9641595543217
 20
4.000000000007276
 30
0.0
 40
3.999999999991483
100
AcDbArc
 50
217.6942404668241
 51
270.0000000002084
  0
LINE
  5
99
330
2
100
AcDbEntity
  8
0
100
AcDbLine
 10
349.70098045122
 20
1.554209995727433
 30
0.0
 11
364.7771959802194
 21
25.31090817593213
 31
0.0
  0
ARC
  5
9A
330
2
100
AcDbEntity
  8
0
100
AcDbCircle
 10
415.4641595543217
 20
4.000000000029104
 30
0.0
 40
3.999999999991483
100
AcDbArc
 50
217.6942404668241
 51
270.0000000002084
  0
LINE
  5
9B
330
2
100
AcDbEntity
  8
0
100
AcDbLine
 10
415.4641595543362
 20
0.0000000000254659
 30
0.0
 11
436.1189340867568
 21
0.0000000000291038
 31
0.0
  0
LINE
  5
9C
330
2
100
AcDbEntity
  8
0
100
AcDbLine
 10
436.3806989058212
 20
0.0098024154358427
 30
0.0
 11
475.9882352072746
 21
2.980367638589087
 31
0.0
  0
LINE
  5
9D
330
2
100
AcDbEntity
  8
0
100
AcDbLine
 10
476.5117648449668
 20
2.980367638621829
 30
0.0
 11
516.1193011619762
 21
0.0098024154031009
 31
0.0
  0
ARC
  5
9E
330
2
100
AcDbEntity
  8
0
100
AcDbCircle
 10
518.6497896534711
 20
3.999999999738066
 30
0.0
 40
3.999999999708711
100
AcDbArc
 50
265.7108466748626
 51
270.0000000004169
  0
LINE
  5
9F
330
2
100
AcDbEntity
  8
0
100
AcDbLine
 10
516.381065980604
 20
0.0000000000291038
 30
0.0
 11
537.0358404456492
 21
0.0000000000291038
 31
0.0
  0
ARC
  5
A0
330
2
100
AcDbEntity
  8
0
100
AcDbCircle
 10
537.0358404456492
 20
4.000000000029104
 30
0.0
 40
4.0
100
AcDbArc
 50
270.0
 51
322.3057595333445
  0
ARC
  5
A1
330
2
100
AcDbEntity
  8
0
100
AcDbCircle
 10
436.1189340867568
 20
3.500000000029104
 30
0.0
 40
3.5
100
AcDbArc
 50
270.00000000001
 51
274.2891533324612
  0
ARC
  5
A2
330
2
100
AcDbEntity
  8
0
100
AcDbCircle
 10
516.381065980604
 20
3.500000000029104
 30
0.0
 40
3.5
100
AcDbArc
 50
265.710846674846
 51
270.0
  0
ARC
  5
A3
330
2
100
AcDbEntity
  8
0
100
AcDbCircle
 10
476.250000026339
 20
-0.5098299460041744
 30
0.0
 40
3.5
100
AcDbArc
 50
85.71084667485157
 51
94.28915333248173
  0
LINE
  5
A5
330
2
100
AcDbEntity
  8
0
100
AcDbLine
 10
397.2228040198097
 20
25.31090817592849
 30
0.0
 11
412.2990195487655
 21
1.554209995723795
 31
0.0
  0
ARC
  5
A6
330
2
100
AcDbEntity
  8
0
100
AcDbCircle
 10
394.057664014239
 20
22.86511817162682
 30
0.0
 40
3.99999999999784
100
AcDbArc
 50
37.69424046665544
 51
71.4289969573737
  0
ARC
  5
A7
330
2
100
AcDbEntity
  8
0
100
AcDbCircle
 10
381.0000000000291
 20
-16.00000000030559
 30
0.0
 40
45.00000000032512
100
AcDbArc
 50
71.42899695744687
 51
108.5710030426088
  0
ARC
  5
A8
330
2
100
AcDbEntity
  8
0
100
AcDbCircle
 10
367.942335985761
 20
22.86511817165592
 30
0.0
 40
3.999999999962173
100
AcDbArc
 50
108.5710030425947
 51
142.3057595333783
  0
LINE
  5
A9
330
2
100
AcDbEntity
  8
0
100
AcDbLine
 10
540.20098045122
 20
1.554209995749261
 30
0.0
 11
555.2771959802194
 21
25.31090817595396
 31
0.0
  0
ARC
  5
AA
330
2
100
AcDbEntity
  8
0
100
AcDbCircle
 10
558.442335985761
 20
22.86511817167775
 30
0.0
 40
3.999999999962173
100
AcDbArc
 50
108.5710030425947
 51
142.3057595333783
  0
ARC
  5
AB
330
2
100
AcDbEntity
  8
0
100
AcDbCircle
 10
571.5000000000291
 20
-16.00000000028376
 30
0.0
 40
45.00000000032512
100
AcDbArc
 50
71.42899695744687
 51
108.5710030426088
  0
ARC
  5
AC
330
2
100
AcDbEntity
  8
0
100
AcDbCircle
 10
584.557664014239
 20
22.86511817164865
 30
0.0
 40
3.99999999999784
100
AcDbArc
 50
37.69424046665544
 51
71.4289969573737
  0
LINE
  5
AD
330
2
100
AcDbEntity
  8
0
100
AcDbLine
 10
587.7228040198097
 20
25.31090817595032
 30
0.0
 11
602.7990195487655
 21
1.554209995745623
 31
0.0
  0
ARC
  5
AF
330
2
100
AcDbEntity
  8
0
100
AcDbCircle
 10
666.750000026339
 20
-0.5098299459823465
 30
0.0
 40
3.5
100
AcDbArc
 50
85.71084667485157
 51
94.28915333248173
  0
ARC
  5
B0
330
2
100
AcDbEntity
  8
0
100
AcDbCircle
 10
706.881065980604
 20
3.500000000050932
 30
0.0
 40
3.5
100
AcDbArc
 50
265.710846674846
 51
270.0
  0
ARC
  5
B1
330
2
100
AcDbEntity
  8
0
100
AcDbCircle
 10
626.6189340867568
 20
3.500000000050932
 30
0.0
 40
3.5
100
AcDbArc
 50
270.00000000001
 51
274.2891533324612
  0
ARC
  5
B2
330
2
100
AcDbEntity
  8
0
100
AcDbCircle
 10
727.5358404456492
 20
4.000000000050932
 30
0.0
 40
4.0
100
AcDbArc
 50
270.0
 51
322.3057595333445
  0
LINE
  5
B3
330
2
100
AcDbEntity
  8
0
100
AcDbLine
 10
706.881065980604
 20
0.0000000000509317
 30
0.0
 11
727.5358404456492
 21
0.0000000000509317
 31
0.0
  0
ARC
  5
B4
330
2
100
AcDbEntity
  8
0
100
AcDbCircle
 10
709.1497896534711
 20
3.999999999759893
 30
0.0
 40
3.999999999708711
100
AcDbArc
 50
265.7108466748626
 51
270.0000000004169
  0
LINE
  5
B5
330
2
100
AcDbEntity
  8
0
100
AcDbLine
 10
667.0117648449668
 20
2.980367638643656
 30
0.0
 11
706.6193011619762
 21
0.0098024154249288
 31
0.0
  0
LINE
  5
B6
330
2
100
AcDbEntity
  8
0
100
AcDbLine
 10
626.8806989058212
 20
0.0098024154576706
 30
0.0
 11
666.4882352072746
 21
2.980367638610915
 31
0.0
  0
LINE
  5
B7
330
2
100
AcDbEntity
  8
0
100
AcDbLine
 10
605.9641595543362
 20
0.0000000000472937
 30
0.0
 11
626.6189340867568
 21
0.0000000000509317
 31
0.0
  0
ARC
  5
B8
330
2
100
AcDbEntity
  8
0
100
AcDbCircle
 10
605.9641595543217
 20
4.000000000050932
 30
0.0
 40
3.999999999991483
100
AcDbArc
 50
217.6942404668241
 51
270.0000000002084
  0
ENDSEC
  0
SECTION
  2
OBJECTS
  0
DICTIONARY
  5
9
330
0
100
AcDbDictionary
281
     1
  3
ACAD_COLOR
350
2E
  3
ACAD_GROUP
350
23
  3
ACAD_LAYOUT
350
D
  3
ACAD_MATERIAL
350
2D
  3
ACAD_MLINESTYLE
350
24
  3
ACAD_PLOTSETTINGS
350
25
  3
ACAD_PLOTSTYLENAME
350
8
  3
ACDBHEADERROUNDTRIPXREC
350
1B2
  3
AcDbVariableDictionary
350
29
  0
DICTIONARY
  5
2E
102
{ACAD_REACTORS
330
9
102
}
330
9
100
AcDbDictionary
281
     1
  0
DICTIONARY
  5
23
102
{ACAD_REACTORS
330
9
102
}
330
9
100
AcDbDictionary
281
     1
  0
DICTIONARY
  5
D
102
{ACAD_REACTORS
330
9
102
}
330
9
100
AcDbDictionary
281
     1
  3
Layout1
350
13
  3
Model
350
C
  0
DICTIONARY
  5
2D
102
{ACAD_REACTORS
330
9
102
}
330
9
100
AcDbDictionary
281
     1
  0
DICTIONARY
  5
24
102
{ACAD_REACTORS
330
9
102
}
330
9
100
AcDbDictionary
281
     1
  3
STANDARD
350
26
  0
DICTIONARY
  5
25
102
{ACAD_REACTORS
330
9
102
}
330
9
100
AcDbDictionary
281
     1
  0
ACDBDICTIONARYWDFLT
  5
8
102
{ACAD_REACTORS
330
9
102
}
330
9
100
AcDbDictionary
281
     1
  3
Normal
350
7
100
AcDbDictionaryWithDefault
340
7
  0
DICTIONARY
  5
1B2
102
{ACAD_REACTORS
330
9
102
}
330
9
100
AcDbDictionary
281
     1
  3
COLORDICT
350
1B3
  3
MATERIALDICT
350
1B4
  0
DICTIONARY
  5
29
102
{ACAD_REACTORS
330
9
102
}
330
9
100
AcDbDictionary
281
     1
  3
DIMASSOC
350
2B
  3
HIDETEXT
350
2A
  3
SORTENTS
350
1B1
  0
LAYOUT
  5
13
102
{ACAD_REACTORS
330
D
102
}
102
{ACAD_XDICTIONARY
360
36
102
}
330
D
100
AcDbPlotSettings
  1

  2
C:\PROGRAM FILES\ACAD2000\plotters\DesignJet 350C C4699A.pc3
  4

  6

 40
0.0
 41
0.0
 42
0.0
 43
0.0
 44
0.0
 45
0.0
 46
0.0
 47
0.0
 48
0.0
 49
0.0
140
0.0
141
0.0
142
1.0
143
1.0
 70
   688
 72
     0
 73
     0
 74
     5
  7
A3-SinglePen.ctb
 75
    16
147
1.0
148
0.0
149
0.0
100
AcDbLayout
  1
Layout1
 70
     0
 71
     1
 10
0.0
 20
0.0
 11
803.0
 21
574.0
 12
0.0
 22
0.0
 32
0.0
 14
0.0
 24
0.0
 34
0.0
 15
801.0
 25
575.0
 35
0.0
146
0.0
 13
0.0
 23
0.0
 33
0.0
 16
1.0
 26
0.0
 36
0.0
 17
0.0
 27
1.0
 37
0.0
 76
     0
330
E
  0
LAYOUT
  5
C
102
{ACAD_REACTORS
330
D
102
}
102
{ACAD_XDICTIONARY
360
34
102
}
330
D
100
AcDbPlotSettings
  1

  2
LANIER A3
  4
A3
  6

 40
6.805083274841309
 41
5.027085304260254
 42
7.228424072265625
 43
5.027069091796875
 44
296.9259948730469
 45
419.9466552734375
 46
0.0
 47
0.0
 48
103860.2873965428
 49
22494.00599669256
140
104751.6156148239
141
22868.60008005934
142
1.0
143
1.0
 70
 11936
 72
     1
 73
     1
 74
     4
  7
A3-SinglePen.ctb
 75
     0
147
1.0
148
-103860.2873965428
149
-22494.00599669256
100
AcDbLayout
  1
Model
 70
     1
 71
     0
 10
0.0
 20
0.0
 11
12.0
 21
9.0
 12
0.0
 22
0.0
 32
0.0
 14
0.0
 24
0.0
 34
0.0
 15
0.0
 25
0.0
 35
0.0
146
0.0
 13
0.0
 23
0.0
 33
0.0
 16
1.0
 26
0.0
 36
0.0
 17
0.0
 27
1.0
 37
0.0
 76
     0
330
2
  0
MLINESTYLE
  5
26
102
{ACAD_REACTORS
330
24
102
}
330
24
100
AcDbMlineStyle
  2
STANDARD
 70
     0
  3

 62
     0
 51
90.0
 52
90.0
 71
     2
 49
0.5
 62
   256
  6
BYLAYER
 49
-0.5
 62
   256
  6
BYLAYER
  0
ACDBPLACEHOLDER
  5
7
102
{ACAD_REACTORS
330
8
102
}
330
8
  0
XRECORD
  5
1B3
102
{ACAD_REACTORS
330
1B2
102
}
330
1B2
100
AcDbXrecord
280
     1
340
2E
  0
XRECORD
  5
1B4
102
{ACAD_REACTORS
330
1B2
102
}
330
1B2
100
AcDbXrecord
280
     1
340
2D
  0
DICTIONARYVAR
  5
2B
102
{ACAD_REACTORS
330
29
102
}
330
29
100
DictionaryVariables
280
     0
  1
2
  0
DICTIONARYVAR
  5
2A
102
{ACAD_REACTORS
330
29
102
}
330
29
100
DictionaryVariables
280
     0
  1
1
  0
DICTIONARYVAR
  5
1B1
102
{ACAD_REACTORS
330
29
102
}
330
29
100
DictionaryVariables
280
     0
  1
35
  0
DICTIONARY
  5
36
330
13
100
AcDbDictionary
280
     1
281
     1
  0
DICTIONARY
  5
34
330
C
100
AcDbDictionary
280
     1
281
     1
  0
ENDSEC
  0
EOF
