  0
SECTION
  2
HEADER
  9
$ACADVER
  1
AC1014
  9
$ACADMAINTVER
 70
     9
  9
$DWGCODEPAGE
  3
ANSI_1252
  9
$INSBASE
 10
0.0
 20
0.0
 30
0.0
  9
$EXTMIN
 10
-13.4832839220694
 20
-1.201635189943659
 30
0.0
  9
$EXTMAX
 10
311.9377661729004
 20
217.8171113087492
 30
0.0
  9
$LIMMIN
 10
0.0
 20
0.0
  9
$LIMMAX
 10
12.0
 20
9.0
  9
$ORTHOMODE
 70
     0
  9
$REGENMODE
 70
     1
  9
$FILLMODE
 70
     1
  9
$QTEXTMODE
 70
     0
  9
$MIRRTEXT
 70
     1
  9
$DRAGMODE
 70
     2
  9
$LTSCALE
 40
1.0
  9
$OSMODE
 70
    37
  9
$ATTMODE
 70
     1
  9
$TEXTSIZE
 40
0.2
  9
$TRACEWID
 40
0.05
  9
$TEXTSTYLE
  7
STANDARD
  9
$CLAYER
  8
0
  9
$CELTYPE
  6
BYLAYER
  9
$CECOLOR
 62
   256
  9
$CELTSCALE
 40
1.0
  9
$DELOBJ
 70
     1
  9
$DISPSILH
 70
     0
  9
$DIMSCALE
 40
1.0
  9
$DIMASZ
 40
0.18
  9
$DIMEXO
 40
0.0625
  9
$DIMDLI
 40
0.38
  9
$DIMRND
 40
0.0
  9
$DIMDLE
 40
0.0
  9
$DIMEXE
 40
0.18
  9
$DIMTP
 40
0.0
  9
$DIMTM
 40
0.0
  9
$DIMTXT
 40
0.18
  9
$DIMCEN
 40
0.09
  9
$DIMTSZ
 40
0.0
  9
$DIMTOL
 70
     0
  9
$DIMLIM
 70
     0
  9
$DIMTIH
 70
     1
  9
$DIMTOH
 70
     1
  9
$DIMSE1
 70
     0
  9
$DIMSE2
 70
     0
  9
$DIMTAD
 70
     0
  9
$DIMZIN
 70
     0
  9
$DIMBLK
  1

  9
$DIMASO
 70
     1
  9
$DIMSHO
 70
     1
  9
$DIMPOST
  1

  9
$DIMAPOST
  1

  9
$DIMALT
 70
     0
  9
$DIMALTD
 70
     2
  9
$DIMALTF
 40
25.4
  9
$DIMLFAC
 40
1.0
  9
$DIMTOFL
 70
     0
  9
$DIMTVP
 40
0.0
  9
$DIMTIX
 70
     0
  9
$DIMSOXD
 70
     0
  9
$DIMSAH
 70
     0
  9
$DIMBLK1
  1

  9
$DIMBLK2
  1

  9
$DIMSTYLE
  2
STANDARD_WS
  9
$DIMCLRD
 70
     0
  9
$DIMCLRE
 70
     0
  9
$DIMCLRT
 70
     0
  9
$DIMTFAC
 40
1.0
  9
$DIMGAP
 40
0.09
  9
$DIMJUST
 70
     0
  9
$DIMSD1
 70
     0
  9
$DIMSD2
 70
     0
  9
$DIMTOLJ
 70
     1
  9
$DIMTZIN
 70
     0
  9
$DIMALTZ
 70
     0
  9
$DIMALTTZ
 70
     0
  9
$DIMFIT
 70
     3
  9
$DIMUPT
 70
     0
  9
$DIMUNIT
 70
     2
  9
$DIMDEC
 70
     4
  9
$DIMTDEC
 70
     4
  9
$DIMALTU
 70
     2
  9
$DIMALTTD
 70
     2
  9
$DIMTXSTY
  7
STANDARD
  9
$DIMAUNIT
 70
     0
  9
$LUNITS
 70
     2
  9
$LUPREC
 70
     4
  9
$SKETCHINC
 40
0.1
  9
$FILLETRAD
 40
0.5
  9
$AUNITS
 70
     0
  9
$AUPREC
 70
     0
  9
$MENU
  1
.
  9
$ELEVATION
 40
0.0
  9
$PELEVATION
 40
0.0
  9
$THICKNESS
 40
0.0
  9
$LIMCHECK
 70
     0
  9
$BLIPMODE
 70
     0
  9
$CHAMFERA
 40
0.5
  9
$CHAMFERB
 40
0.5
  9
$CHAMFERC
 40
1.0
  9
$CHAMFERD
 40
0.0
  9
$SKPOLY
 70
     1
  9
$TDCREATE
 40
2452374.882549653
  9
$TDUPDATE
 40
2452374.923662384
  9
$TDINDWG
 40
0.0039770833
  9
$TDUSRTIMER
 40
0.0039770833
  9
$USRTIMER
 70
     1
  9
$ANGBASE
 50
0.0
  9
$ANGDIR
 70
     0
  9
$PDMODE
 70
     0
  9
$PDSIZE
 40
0.0
  9
$PLINEWID
 40
0.0
  9
$COORDS
 70
     1
  9
$SPLFRAME
 70
     0
  9
$SPLINETYPE
 70
     6
  9
$SPLINESEGS
 70
     8
  9
$ATTDIA
 70
     0
  9
$ATTREQ
 70
     1
  9
$HANDLING
 70
     1
  9
$HANDSEED
  5
164
  9
$SURFTAB1
 70
     6
  9
$SURFTAB2
 70
     6
  9
$SURFTYPE
 70
     6
  9
$SURFU
 70
     6
  9
$SURFV
 70
     6
  9
$UCSNAME
  2

  9
$UCSORG
 10
0.0
 20
0.0
 30
0.0
  9
$UCSXDIR
 10
1.0
 20
0.0
 30
0.0
  9
$UCSYDIR
 10
0.0
 20
1.0
 30
0.0
  9
$PUCSNAME
  2

  9
$PUCSORG
 10
0.0
 20
0.0
 30
0.0
  9
$PUCSXDIR
 10
1.0
 20
0.0
 30
0.0
  9
$PUCSYDIR
 10
0.0
 20
1.0
 30
0.0
  9
$USERI1
 70
     0
  9
$USERI2
 70
     0
  9
$USERI3
 70
     0
  9
$USERI4
 70
     0
  9
$USERI5
 70
     0
  9
$USERR1
 40
0.0
  9
$USERR2
 40
0.0
  9
$USERR3
 40
0.0
  9
$USERR4
 40
0.0
  9
$USERR5
 40
0.0
  9
$WORLDVIEW
 70
     1
  9
$SHADEDGE
 70
     3
  9
$SHADEDIF
 70
    70
  9
$TILEMODE
 70
     1
  9
$MAXACTVP
 70
    48
  9
$PINSBASE
 10
0.0
 20
0.0
 30
0.0
  9
$PLIMCHECK
 70
     0
  9
$PEXTMIN
 10
1.000000000000000E+20
 20
1.000000000000000E+20
 30
1.000000000000000E+20
  9
$PEXTMAX
 10
-1.000000000000000E+20
 20
-1.000000000000000E+20
 30
-1.000000000000000E+20
  9
$PLIMMIN
 10
0.0
 20
0.0
  9
$PLIMMAX
 10
12.0
 20
9.0
  9
$UNITMODE
 70
     0
  9
$VISRETAIN
 70
     1
  9
$PLINEGEN
 70
     0
  9
$PSLTSCALE
 70
     1
  9
$TREEDEPTH
 70
  3020
  9
$PICKSTYLE
 70
     1
  9
$CMLSTYLE
  2
STANDARD
  9
$CMLJUST
 70
     0
  9
$CMLSCALE
 40
1.0
  9
$PROXYGRAPHICS
 70
     1
  9
$MEASUREMENT
 70
     0
  0
ENDSEC
  0
SECTION
  2
CLASSES
  0
CLASS
  1
DICTIONARYVAR
  2
AcDbDictionaryVar
  3
ObjectDBX Classes
 90
        0
280
     0
281
     0
  0
CLASS
  1
XRECORD
  2
AcDbXrecord
  3
AutoCAD 2000
 90
        0
280
     0
281
     0
  0
CLASS
  1
ACDBDICTIONARYWDFLT
  2
AcDbDictionaryWithDefault
  3
ObjectDBX Classes
 90
        0
280
     0
281
     0
  0
CLASS
  1
ACDBPLACEHOLDER
  2
AcDbPlaceHolder
  3
ObjectDBX Classes
 90
        0
280
     0
281
     0
  0
CLASS
  1
LAYOUT
  2
AcDbLayout
  3
ObjectDBX Classes
 90
        0
280
     0
281
     0
  0
CLASS
  1
LONG_TRANSACTION
  2
AcDbLongTransaction
  3
AutoCAD 2000
 90
        0
280
     1
281
     0
  0
CLASS
  1
LWPOLYLINE
  2
AcDbPolyline
  3
AutoCAD 2000
 90
        0
280
     0
281
     1
  0
CLASS
  1
HATCH
  2
AcDbHatch
  3
AutoCAD 2000
 90
        0
280
     0
281
     1
  0
CLASS
  1
XRECORD
  2
AcDbXrecord
  3
AutoCAD 2000
 90
        0
280
     0
281
     0
  0
ENDSEC
  0
SECTION
  2
TABLES
  0
TABLE
  2
VPORT
  5
8
330
0
100
AcDbSymbolTable
 70
     3
  0
VPORT
  5
114
102
{ACAD_XDICTIONARY
360
118
102
}
330
8
100
AcDbSymbolTableRecord
100
AcDbViewportTableRecord
  2
*ACTIVE
 70
     0
 10
0.0
 20
0.0
 11
1.0
 21
1.0
 12
173.5167006993534
 22
223.7832917541649
 13
0.0
 23
0.0
 14
0.5
 24
0.5
 15
0.5
 25
0.5
 16
0.0
 26
0.0
 36
1.0
 17
0.0
 27
0.0
 37
0.0
 40
570.6536681941374
 41
1.851926977687627
 42
50.0
 43
0.0
 44
0.0
 50
0.0
 51
0.0
 71
     0
 72
   100
 73
     1
 74
     1
 75
     0
 76
     1
 77
     0
 78
     0
  0
ENDTAB
  0
TABLE
  2
LTYPE
  5
5
330
0
100
AcDbSymbolTable
 70
     1
  0
LTYPE
  5
13
330
5
100
AcDbSymbolTableRecord
100
AcDbLinetypeTableRecord
  2
BYBLOCK
 70
     0
  3

 72
    65
 73
     0
 40
0.0
  0
LTYPE
  5
14
330
5
100
AcDbSymbolTableRecord
100
AcDbLinetypeTableRecord
  2
BYLAYER
 70
     0
  3

 72
    65
 73
     0
 40
0.0
  0
LTYPE
  5
15
330
5
100
AcDbSymbolTableRecord
100
AcDbLinetypeTableRecord
  2
CONTINUOUS
 70
     0
  3
Solid line
 72
    65
 73
     0
 40
0.0
  0
ENDTAB
  0
TABLE
  2
LAYER
  5
2
330
0
100
AcDbSymbolTable
 70
     1
  0
LAYER
  5
F
330
2
100
AcDbSymbolTableRecord
100
AcDbLayerTableRecord
  2
0
 70
     0
 62
     7
  6
CONTINUOUS
  0
ENDTAB
  0
TABLE
  2
STYLE
  5
3
330
0
100
AcDbSymbolTable
 70
     1
  0
STYLE
  5
10
330
3
100
AcDbSymbolTableRecord
100
AcDbTextStyleTableRecord
  2
STANDARD
 70
     0
 40
0.0
 41
1.0
 50
0.0
 71
     0
 42
0.2
  3
txt
  4

  0
ENDTAB
  0
TABLE
  2
VIEW
  5
6
330
0
100
AcDbSymbolTable
 70
     0
  0
ENDTAB
  0
TABLE
  2
UCS
  5
7
330
0
100
AcDbSymbolTable
 70
     0
  0
ENDTAB
  0
TABLE
  2
APPID
  5
9
330
0
100
AcDbSymbolTable
 70
     2
  0
APPID
  5
11
330
9
100
AcDbSymbolTableRecord
100
AcDbRegAppTableRecord
  2
ACAD
 70
     0
  0
APPID
  5
142
330
9
100
AcDbSymbolTableRecord
100
AcDbRegAppTableRecord
  2
CONTENTBLOCKICON
 70
     0
  0
ENDTAB
  0
TABLE
  2
DIMSTYLE
  5
A
330
0
100
AcDbSymbolTable
 70
     3
  0
DIMSTYLE
105
1D
330
A
100
AcDbSymbolTableRecord
100
AcDbDimStyleTableRecord
  2
STANDARD
 70
     0
  3

  4

  5

  6

  7

 40
1.0
 41
0.18
 42
0.0625
 43
0.38
 44
0.18
 45
0.0
 46
0.0
 47
0.0
 48
0.0
140
0.18
141
0.09
142
0.0
143
25.4
144
1.0
145
0.0
146
1.0
147
0.09
 71
     0
 72
     0
 73
     1
 74
     1
 75
     0
 76
     0
 77
     0
 78
     0
170
     0
171
     2
172
     0
173
     0
174
     0
175
     0
176
     0
177
     0
178
     0
270
     2
271
     4
272
     4
273
     2
274
     2
340
10
275
     0
280
     0
281
     0
282
     0
283
     1
284
     0
285
     0
286
     0
287
     3
288
     0
  0
DIMSTYLE
105
4E
330
A
100
AcDbSymbolTableRecord
100
AcDbDimStyleTableRecord
  2
STANDARD_WS
 70
     0
  3

  4

  5

  6

  7

 40
1.0
 41
0.18
 42
0.0625
 43
0.38
 44
0.18
 45
0.0
 46
0.0
 47
0.0
 48
0.0
140
0.18
141
0.09
142
0.0
143
25.4
144
1.0
145
0.0
146
1.0
147
0.09
 71
     0
 72
     0
 73
     1
 74
     1
 75
     0
 76
     0
 77
     0
 78
     0
170
     0
171
     2
172
     0
173
     0
174
     0
175
     0
176
     0
177
     0
178
     0
270
     2
271
     4
272
     4
273
     2
274
     2
340
10
275
     0
280
     0
281
     0
282
     0
283
     1
284
     0
285
     0
286
     0
287
     3
288
     0
  0
DIMSTYLE
105
85
330
A
100
AcDbSymbolTableRecord
100
AcDbDimStyleTableRecord
  2
ISO-25
 70
     0
  3

  4

  5

  6

  7

 40
1.0
 41
2.5
 42
0.625
 43
3.75
 44
1.25
 45
0.0
 46
0.0
 47
0.0
 48
0.0
140
2.5
141
2.5
142
0.0
143
0.03937007874016
144
1.0
145
0.0
146
1.0
147
0.625
 71
     0
 72
     0
 73
     0
 74
     0
 75
     0
 76
     0
 77
     1
 78
     8
170
     0
171
     3
172
     1
173
     0
174
     0
175
     0
176
     0
177
     0
178
     0
270
     2
271
     2
272
     2
273
     2
274
     3
340
10
275
     0
280
     0
281
     0
282
     0
283
     0
284
     8
285
     0
286
     0
287
     3
288
     0
  0
ENDTAB
  0
TABLE
  2
BLOCK_RECORD
  5
1
330
0
100
AcDbSymbolTable
 70
     5
  0
BLOCK_RECORD
  5
19
330
1
100
AcDbSymbolTableRecord
100
AcDbBlockTableRecord
  2
*MODEL_SPACE
  0
BLOCK_RECORD
  5
16
330
1
100
AcDbSymbolTableRecord
100
AcDbBlockTableRecord
  2
*PAPER_SPACE
  0
BLOCK_RECORD
  5
4F
102
{ACAD_XDICTIONARY
360
50
102
}
330
1
100
AcDbSymbolTableRecord
100
AcDbBlockTableRecord
  2
*PAPER_SPACE0
  0
BLOCK_RECORD
  5
55
330
1
100
AcDbSymbolTableRecord
100
AcDbBlockTableRecord
  2
A$C33195737
  0
BLOCK_RECORD
  5
5A
330
1
100
AcDbSymbolTableRecord
100
AcDbBlockTableRecord
  2
BHPFLATDEK
  0
BLOCK_RECORD
  5
88
330
1
100
AcDbSymbolTableRecord
100
AcDbBlockTableRecord
  2
FLATDEK
  0
BLOCK_RECORD
  5
E7
330
1
100
AcDbSymbolTableRecord
100
AcDbBlockTableRecord
  2
BHPFLATDECK
1001
CONTENTBLOCKICON
1071
        0
1004
28000000200000002000000001000800000000000004000000000000000000000000000000000000000000004000000080000000FF000000002000004020000080200000FF200000004000004040000080400000FF400000006000004060000080600000FF600000008000004080000080800000FF80000000A0000040A000
1004
0080A00000FFA0000000C0000040C0000080C00000FFC0000000FF000040FF000080FF0000FFFF0000000020004000200080002000FF002000002020004020200080202000FF202000004020004040200080402000FF402000006020004060200080602000FF602000008020004080200080802000FF80200000A0200040A0
1004
200080A02000FFA0200000C0200040C0200080C02000FFC0200000FF200040FF200080FF2000FFFF2000000040004000400080004000FF004000002040004020400080204000FF204000004040004040400080404000FF404000006040004060400080604000FF604000008040004080400080804000FF80400000A0400040
1004
A0400080A04000FFA0400000C0400040C0400080C04000FFC0400000FF400040FF400080FF4000FFFF4000000060004000600080006000FF006000002060004020600080206000FF206000004060004040600080406000FF406000006060004060600080606000FF606000008060004080600080806000FF80600000A06000
1004
40A0600080A06000FFA0600000C0600040C0600080C06000FFC0600000FF600040FF600080FF6000FFFF6000000080004000800080008000FF008000002080004020800080208000FF208000004080004040800080408000FF408000006080004060800080608000FF608000008080004080800080808000FF80800000A080
1004
0040A0800080A08000FFA0800000C0800040C0800080C08000FFC0800000FF800040FF800080FF8000FFFF80000000A0004000A0008000A000FF00A0000020A0004020A0008020A000FF20A0000040A0004040A0008040A000FF40A0000060A0004060A0008060A000FF60A0000080A0004080A0008080A000FF80A00000A0
1004
A00040A0A00080A0A000FFA0A00000C0A00040C0A00080C0A000FFC0A00000FFA00040FFA00080FFA000FFFFA0000000C0004000C0008000C000FF00C0000020C0004020C0008020C000FF20C0000040C0004040C0008040C000FF40C0000060C0004060C0008060C000FF60C0000080C0004080C0008080C000FF80C00000
1004
A0C00040A0C00080A0C000FFA0C00000C0C00040C0C00080C0C000FFC0C00000FFC00040FFC00080FFC000FFFFC0000000FF004000FF008000FF00FF00FF000020FF004020FF008020FF00FF20FF000040FF004040FF008040FF00FF40FF000060FF004060FF008060FF00FF60FF000080FF004080FF008080FF00FF80FF00
1004
00A0FF0040A0FF0080A0FF00FFA0FF0000C0FF0040C0FF0080C0FF00FFC0FF0000FFFF0040FFFF0080FFFF00FFFFFF0000000000000000000000000000000000000000000000000000000000000000000000000000000000000000000000000000000000000000000000000000000000000000000000000000000000000000
1004
00000000000000000000000000000000000000000000000000000000000000000000000000000000000000000000000000000000000000000000000000000000000000000000000000000000000000000000000000000000000000000000000000000000000000000000000000000000000000000000000000000000000000
1004
00000000000000000000000000000000000000000000000000000000000000000000000000000000000000000000000000000000000000000000000000000000000000000000000000000000000000000000000000000000000000000000000000000000000000000000000000000000000000000000000000000000000000
1004
0000000000000000000000000000000000000000000000000000000000000000000000000000000000000000000000000000000000000000000000000000000000000000000000000000000000000000000000000000FFFFFFFFFFFFFFFFFFFFFFFFFFFFFFFFFFFFFFFFFFFFFFFFFF00000000000000FF00000000000000FF
1004
00000000000000FF0000000000000000FF000000000000FF0000000000000000000000000000000000000000000000FF0000000000000000FF00000000000000000000000000000000000000000000FF0000000000FFFFFFFFFF0000000000000000000000000000000000000000FF0000FFFF0000FFFF00FF000000000000
1004
000000000000000000000000000000FFFFFFFF000000000000000000000000000000000000000000000000000000000000000000000000000000000000000000000000000000000000000000000000000000000000000000000000000000000000000000000000000000000000000000000000000000000000000000000000
1004
00000000000000000000000000000000000000000000000000000000000000000000000000000000000000000000000000000000000000000000000000000000000000000000000000000000000000000000000000000000000000000000000000000000000000000000000000000000000000000000000000000000000000
1004
00000000000000000000000000000000000000000000000000000000000000000000000000000000000000000000000000000000000000000000000000000000000000000000000000000000000000000000000000000000000000000000000000000000000000000000000000000000000000000000000000000000000000
1004
0000000000000000000000000000000000000000000000000000000000000000000000000000000000000000000000000000000000000000
  0
ENDTAB
  0
ENDSEC
  0
SECTION
  2
BLOCKS
  0
BLOCK
  5
1A
330
19
100
AcDbEntity
  8
0
100
AcDbBlockBegin
  2
*MODEL_SPACE
 70
     0
 71
     0
 10
0.0
 20
0.0
 30
0.0
  3
*MODEL_SPACE
  1

  0
ENDBLK
  5
1B
330
19
100
AcDbEntity
  8
0
100
AcDbBlockEnd
  0
BLOCK
  5
17
330
16
100
AcDbEntity
 67
     1
  8
0
100
AcDbBlockBegin
  2
*PAPER_SPACE
 70
     0
 71
     0
 10
0.0
 20
0.0
 30
0.0
  3
*PAPER_SPACE
  1

  0
ENDBLK
  5
18
330
16
100
AcDbEntity
 67
     1
  8
0
100
AcDbBlockEnd
  0
BLOCK
  5
53
330
4F
100
AcDbEntity
  8
0
100
AcDbBlockBegin
  2
*PAPER_SPACE0
 70
     0
 71
     0
 10
0.0
 20
0.0
 30
0.0
  3
*PAPER_SPACE0
  1

  0
ENDBLK
  5
54
330
4F
100
AcDbEntity
  8
0
100
AcDbBlockEnd
  0
BLOCK
  5
58
330
55
100
AcDbEntity
  8
0
100
AcDbBlockBegin
  2
A$C33195737
 70
     0
 71
     0
 10
0.0
 20
0.0
 30
0.0
  3
A$C33195737
  1

  0
LINE
  5
56
330
55
100
AcDbEntity
  8
0
100
AcDbLine
 10
0.000001308502533
 20
0.0000143403988204
 30
0.0
 11
4.407958760759954
 21
3.500254905002691
 31
0.0
  0
LINE
  5
57
330
55
100
AcDbEntity
  8
0
100
AcDbLine
 10
4.407958760759954
 20
3.500254905002691
 30
0.0
 11
8.815914552938693
 21
-0.0000000661449349
 31
0.0
  0
ENDBLK
  5
59
330
55
100
AcDbEntity
  8
0
100
AcDbBlockEnd
  0
BLOCK
  5
83
330
5A
100
AcDbEntity
  8
0
100
AcDbBlockBegin
  2
BHPFLATDEK
 70
     0
 71
     0
 10
0.0
 20
0.0
 30
0.0
  3
BHPFLATDEK
  1

  0
INSERT
  5
5B
330
5A
100
AcDbEntity
  8
0
100
AcDbBlockReference
  2
A$C33195737
 10
157.4270066580905
 20
-2.201635123798724
 30
0.0
  0
LINE
  5
5C
330
5A
100
AcDbEntity
  8
0
100
AcDbLine
 10
2.203978664835859
 20
-2.201620717254968
 30
0.0
 11
76.19467097349207
 21
-2.201620717254968
 31
0.0
  0
LINE
  5
5D
330
5A
100
AcDbEntity
  8
0
100
AcDbLine
 10
13.5387228499178
 20
32.70979331593026
 30
0.0
 11
0.9445624870593292
 21
11.0081035862753
 31
0.0
  0
LINE
  5
5E
330
5A
100
AcDbEntity
  8
0
100
AcDbLine
 10
2.518832355553286
 20
5.032275628794309
 30
0.0
 11
-0.3148536907172002
 21
2.201620717255082
 31
0.0
  0
LINE
  5
5F
330
5A
100
AcDbEntity
  8
0
100
AcDbLine
 10
0.0
 20
0.0
 30
0.0
 11
2.203978664835859
 21
-2.201620717254968
 31
0.0
  0
LINE
  5
60
330
5A
100
AcDbEntity
  8
0
100
AcDbLine
 10
-0.3148536907172002
 20
2.201620717255082
 30
0.0
 11
0.0
 21
0.0
 31
0.0
  0
LINE
  5
61
330
5A
100
AcDbEntity
  8
0
100
AcDbLine
 10
0.9445624870593292
 20
11.0081035862753
 30
0.0
 11
2.518832355553286
 21
5.032275628794309
 31
0.0
  0
LINE
  5
62
330
5A
100
AcDbEntity
  8
0
100
AcDbLine
 10
-0.3148536907172002
 20
37.42755219333594
 30
0.0
 11
5.667372092540973
 21
39.00013802479987
 31
0.0
  0
LINE
  5
63
330
5A
100
AcDbEntity
  8
0
100
AcDbLine
 10
-10.07532800730519
 20
40.57272454777069
 30
0.0
 11
-7.241641961034702
 21
39.00013802479987
 31
0.0
  0
LINE
  5
64
330
5A
100
AcDbEntity
  8
0
100
AcDbLine
 10
-13.22386774429288
 20
36.79851730754479
 30
0.0
 11
-14.4832839220694
 21
38.05658638762009
 31
0.0
  0
LINE
  5
65
330
5A
100
AcDbEntity
  8
0
100
AcDbLine
 10
-10.39018169802239
 20
35.22593147608086
 30
0.0
 11
-13.22386774429288
 21
36.79851730754479
 31
0.0
  0
LINE
  5
66
330
5A
100
AcDbEntity
  8
0
100
AcDbLine
 10
-13.22386774429288
 20
40.88724199066633
 30
0.0
 11
-10.07532800730519
 21
40.57272454777069
 31
0.0
  0
LINE
  5
67
330
5A
100
AcDbEntity
  8
0
100
AcDbLine
 10
-14.4832839220694
 20
38.05658638762009
 30
0.0
 11
-13.85357654063478
 21
39.94369035348655
 31
0.0
  0
LINE
  5
68
330
5A
100
AcDbEntity
  8
0
100
AcDbLine
 10
-13.85357654063478
 20
39.94369035348655
 30
0.0
 11
-13.22386774429288
 21
40.88724199066633
 31
0.0
  0
LINE
  5
69
330
5A
100
AcDbEntity
  8
0
100
AcDbLine
 10
-7.241641961034702
 20
39.00013802479987
 30
0.0
 11
-2.203977249928357
 21
37.42755219333594
 31
0.0
  0
LINE
  5
6A
330
5A
100
AcDbEntity
  8
0
100
AcDbLine
 10
-2.203977249928357
 20
37.42755219333594
 30
0.0
 11
-0.3148536907172002
 21
37.42755219333594
 31
0.0
  0
LINE
  5
6B
330
5A
100
AcDbEntity
  8
0
100
AcDbLine
 10
5.667372092540973
 20
39.00013802479987
 30
0.0
 11
10.07532800730519
 21
39.94369035348655
 31
0.0
  0
LINE
  5
6C
330
5A
100
AcDbEntity
  8
0
100
AcDbLine
 10
16.05755520547086
 20
37.11303475044031
 30
0.0
 11
13.5387228499178
 21
32.70979331593026
 31
0.0
  0
LINE
  5
6D
330
5A
100
AcDbEntity
  8
0
100
AcDbLine
 10
12.90901546848318
 20
40.57272454777069
 30
0.0
 11
15.42784640912896
 21
40.57272454777069
 31
0.0
  0
LINE
  5
6E
330
5A
100
AcDbEntity
  8
0
100
AcDbLine
 10
10.07532800730519
 20
39.94369035348655
 30
0.0
 11
12.90901546848318
 21
40.57272454777069
 31
0.0
  0
LINE
  5
6F
330
5A
100
AcDbEntity
  8
0
100
AcDbLine
 10
15.42784640912896
 20
40.57272454777069
 30
0.0
 11
16.37240889618806
 21
39.00013802479987
 31
0.0
  0
LINE
  5
70
330
5A
100
AcDbEntity
  8
0
100
AcDbLine
 10
16.37240889618806
 20
39.00013802479987
 30
0.0
 11
16.05755520547086
 21
37.11303475044031
 31
0.0
  0
LINE
  5
71
330
5A
100
AcDbEntity
  8
0
100
AcDbLine
 10
85.01058421792823
 20
-2.201635123798724
 30
0.0
 11
157.4270066580905
 21
-2.201635123798724
 31
0.0
  0
LINE
  5
72
330
5A
100
AcDbEntity
  8
0
100
AcDbLine
 10
80.60262842574949
 20
1.298619847348903
 30
0.0
 11
85.01058421792823
 21
-2.201635123798724
 31
0.0
  0
LINE
  5
73
330
5A
100
AcDbEntity
  8
0
100
AcDbLine
 10
76.19467097349207
 20
-2.201620717254968
 30
0.0
 11
80.60262842574949
 21
1.298619847348903
 31
0.0
  0
LINE
  5
74
330
5A
100
AcDbEntity
  8
0
100
AcDbLine
 10
166.2429212110292
 20
-2.201635189943659
 30
0.0
 11
238.6593423426889
 21
-2.201635123798724
 31
0.0
  0
LINE
  5
75
330
5A
100
AcDbEntity
  8
0
100
AcDbLine
 10
246.8455467907829
 20
7.862931231840548
 30
0.0
 11
228.8988680261011
 21
38.37110383051572
 31
0.0
  0
LINE
  5
76
330
5A
100
AcDbEntity
  8
0
100
AcDbLine
 10
229.2137217168183
 20
39.62917291059102
 30
0.0
 11
230.4731378945949
 21
41.20175874205484
 31
0.0
  0
LINE
  5
77
330
5A
100
AcDbEntity
  8
0
100
AcDbLine
 10
228.8988680261011
 20
38.37110383051572
 30
0.0
 11
229.2137217168183
 21
39.62917291059102
 31
0.0
  0
LINE
  5
78
330
5A
100
AcDbEntity
  8
0
100
AcDbLine
 10
238.6593423426889
 20
-2.201635123798724
 30
0.0
 11
247.4752555871251
 21
5.346793071689831
 31
0.0
  0
LINE
  5
79
330
5A
100
AcDbEntity
  8
0
100
AcDbLine
 10
247.4752555871251
 20
5.346793071689831
 30
0.0
 11
246.8455467907829
 21
7.862931231840548
 31
0.0
  0
LINE
  5
7A
330
5A
100
AcDbEntity
  8
0
100
AcDbLine
 10
262.5882483055366
 20
33.65334495311004
 30
0.0
 11
263.5328093776884
 21
32.70979331593026
 31
0.0
  0
LINE
  5
7B
330
5A
100
AcDbEntity
  8
0
100
AcDbLine
 10
232.6771165594307
 20
41.51627618495047
 30
0.0
 11
261.0139770221351
 21
40.88724199066633
 31
0.0
  0
LINE
  5
7C
330
5A
100
AcDbEntity
  8
0
100
AcDbLine
 10
230.4731378945949
 20
41.20175874205484
 30
0.0
 11
232.6771165594307
 21
41.51627618495047
 31
0.0
  0
LINE
  5
7D
330
5A
100
AcDbEntity
  8
0
100
AcDbLine
 10
262.2733931999119
 20
38.05658638762009
 30
0.0
 11
261.6436858184773
 21
35.22593147608086
 31
0.0
  0
LINE
  5
7E
330
5A
100
AcDbEntity
  8
0
100
AcDbLine
 10
261.6436858184773
 20
35.22593147608086
 30
0.0
 11
261.6436858184773
 21
34.5968965902897
 31
0.0
  0
LINE
  5
7F
330
5A
100
AcDbEntity
  8
0
100
AcDbLine
 10
261.6436858184773
 20
34.5968965902897
 30
0.0
 11
262.5882483055366
 21
33.65334495311004
 31
0.0
  0
LINE
  5
80
330
5A
100
AcDbEntity
  8
0
100
AcDbLine
 10
261.0139770221351
 20
40.88724199066633
 30
0.0
 11
261.9585395091945
 21
39.94369035348655
 31
0.0
  0
LINE
  5
81
330
5A
100
AcDbEntity
  8
0
100
AcDbLine
 10
261.9585395091945
 20
39.94369035348655
 30
0.0
 11
262.2733931999119
 21
38.05658638762009
 31
0.0
  0
LINE
  5
82
330
5A
100
AcDbEntity
  8
0
100
AcDbLine
 10
263.5328093776884
 20
32.70979331593026
 30
0.0
 11
265.7367880425243
 21
32.39527587303462
 31
0.0
  0
ENDBLK
  5
84
330
5A
100
AcDbEntity
  8
0
100
AcDbBlockEnd
  0
BLOCK
  5
B1
330
88
100
AcDbEntity
  8
0
100
AcDbBlockBegin
  2
FLATDEK
 70
     0
 71
     0
 10
0.0
 20
0.0
 30
0.0
  3
FLATDEK
  1

  0
LINE
  5
89
330
88
100
AcDbEntity
  8
0
100
AcDbLine
 10
34.81079643235375
 20
210.5267665998796
 30
0.0
 11
31.97711038608327
 21
212.0993524313435
 31
0.0
  0
LINE
  5
8A
330
88
100
AcDbEntity
  8
0
100
AcDbLine
 10
31.97711038608327
 20
212.0993524313435
 30
0.0
 11
30.71769420830674
 21
213.3574215114188
 31
0.0
  0
LINE
  5
8B
330
88
100
AcDbEntity
  8
0
100
AcDbLine
 10
30.71769420830674
 20
213.3574215114188
 30
0.0
 11
31.34740158974137
 21
215.2445254772853
 31
0.0
  0
LINE
  5
8C
330
88
100
AcDbEntity
  8
0
100
AcDbLine
 10
31.34740158974137
 20
215.2445254772853
 30
0.0
 11
31.97711038608327
 21
216.1880771144651
 31
0.0
  0
LINE
  5
8D
330
88
100
AcDbEntity
  8
0
100
AcDbLine
 10
31.97711038608327
 20
216.1880771144651
 30
0.0
 11
35.12565012307096
 21
215.8735596715694
 31
0.0
  0
LINE
  5
8E
330
88
100
AcDbEntity
  8
0
100
AcDbLine
 10
35.12565012307096
 20
215.8735596715694
 30
0.0
 11
37.95933616934144
 21
214.3009731485986
 31
0.0
  0
LINE
  5
8F
330
88
100
AcDbEntity
  8
0
100
AcDbLine
 10
37.95933616934144
 20
214.3009731485986
 30
0.0
 11
42.99700088044779
 21
212.7283873171347
 31
0.0
  0
LINE
  5
90
330
88
100
AcDbEntity
  8
0
100
AcDbLine
 10
42.99700088044779
 20
212.7283873171347
 30
0.0
 11
44.88612443965894
 21
212.7283873171347
 31
0.0
  0
LINE
  5
91
330
88
100
AcDbEntity
  8
0
100
AcDbLine
 10
44.88612443965894
 20
212.7283873171347
 30
0.0
 11
50.86835022291712
 21
214.3009731485986
 31
0.0
  0
LINE
  5
92
330
88
100
AcDbEntity
  8
0
100
AcDbLine
 10
50.86835022291712
 20
214.3009731485986
 30
0.0
 11
55.27630613768133
 21
215.2445254772853
 31
0.0
  0
LINE
  5
93
330
88
100
AcDbEntity
  8
0
100
AcDbLine
 10
55.27630613768133
 20
215.2445254772853
 30
0.0
 11
58.10999359885932
 21
215.8735596715694
 31
0.0
  0
LINE
  5
94
330
88
100
AcDbEntity
  8
0
100
AcDbLine
 10
58.10999359885932
 20
215.8735596715694
 30
0.0
 11
60.6288245395051
 21
215.8735596715694
 31
0.0
  0
LINE
  5
95
330
88
100
AcDbEntity
  8
0
100
AcDbLine
 10
60.6288245395051
 20
215.8735596715694
 30
0.0
 11
61.57338702656421
 21
214.3009731485986
 31
0.0
  0
LINE
  5
96
330
88
100
AcDbEntity
  8
0
100
AcDbLine
 10
61.57338702656421
 20
214.3009731485986
 30
0.0
 11
61.25853333584701
 21
212.413869874239
 31
0.0
  0
LINE
  5
97
330
88
100
AcDbEntity
  8
0
100
AcDbLine
 10
61.25853333584701
 20
212.413869874239
 30
0.0
 11
58.73970098029395
 21
208.010628439729
 31
0.0
  0
LINE
  5
98
330
88
100
AcDbEntity
  8
0
100
AcDbLine
 10
58.73970098029395
 20
208.010628439729
 30
0.0
 11
46.14554061743547
 21
186.308938710074
 31
0.0
  0
LINE
  5
99
330
88
100
AcDbEntity
  8
0
100
AcDbLine
 10
46.14554061743547
 20
186.308938710074
 30
0.0
 11
47.71981048592943
 21
180.333110752593
 31
0.0
  0
LINE
  5
9A
330
88
100
AcDbEntity
  8
0
100
AcDbLine
 10
47.71981048592943
 20
180.333110752593
 30
0.0
 11
44.88612443965894
 21
177.5024558410538
 31
0.0
  0
LINE
  5
9B
330
88
100
AcDbEntity
  8
0
100
AcDbLine
 10
44.88612443965894
 20
177.5024558410538
 30
0.0
 11
45.20097813037614
 21
175.3008351237987
 31
0.0
  0
LINE
  5
9C
330
88
100
AcDbEntity
  8
0
100
AcDbLine
 10
45.20097813037614
 20
175.3008351237987
 30
0.0
 11
47.404956795212
 21
173.0992144065438
 31
0.0
  0
LINE
  5
9D
330
88
100
AcDbEntity
  8
0
100
AcDbLine
 10
47.404956795212
 20
173.0992144065438
 30
0.0
 11
121.3956491038682
 21
173.0992144065438
 31
0.0
  0
LINE
  5
9E
330
88
100
AcDbEntity
  8
0
100
AcDbLine
 10
130.2115623483044
 20
173.0992
 30
0.0
 11
202.6279847884666
 21
173.0992
 31
0.0
  0
LINE
  5
9F
330
88
100
AcDbEntity
  8
0
100
AcDbLine
 10
211.4438993414053
 20
173.0991999338551
 30
0.0
 11
283.860320473065
 21
173.0992
 31
0.0
  0
LINE
  5
A0
330
88
100
AcDbEntity
  8
0
100
AcDbLine
 10
283.860320473065
 20
173.0992
 30
0.0
 11
292.6762337175012
 21
180.6476281954886
 31
0.0
  0
LINE
  5
A1
330
88
100
AcDbEntity
  8
0
100
AcDbLine
 10
292.6762337175012
 20
180.6476281954886
 30
0.0
 11
292.0465249211591
 21
183.1637663556393
 31
0.0
  0
LINE
  5
A2
330
88
100
AcDbEntity
  8
0
100
AcDbLine
 10
292.0465249211591
 20
183.1637663556393
 30
0.0
 11
274.0998461564773
 21
213.6719389543144
 31
0.0
  0
LINE
  5
A3
330
88
100
AcDbEntity
  8
0
100
AcDbLine
 10
274.0998461564773
 20
213.6719389543144
 30
0.0
 11
274.4146998471945
 21
214.9300080343897
 31
0.0
  0
LINE
  5
A4
330
88
100
AcDbEntity
  8
0
100
AcDbLine
 10
274.4146998471945
 20
214.9300080343897
 30
0.0
 11
275.674116024971
 21
216.5025938658536
 31
0.0
  0
LINE
  5
A5
330
88
100
AcDbEntity
  8
0
100
AcDbLine
 10
275.674116024971
 20
216.5025938658536
 30
0.0
 11
277.8780946898069
 21
216.8171113087492
 31
0.0
  0
LINE
  5
A6
330
88
100
AcDbEntity
  8
0
100
AcDbLine
 10
277.8780946898069
 20
216.8171113087492
 30
0.0
 11
306.2149551525113
 21
216.1880771144651
 31
0.0
  0
LINE
  5
A7
330
88
100
AcDbEntity
  8
0
100
AcDbLine
 10
306.2149551525113
 20
216.1880771144651
 30
0.0
 11
307.1595176395706
 21
215.2445254772853
 31
0.0
  0
LINE
  5
A8
330
88
100
AcDbEntity
  8
0
100
AcDbLine
 10
307.1595176395706
 20
215.2445254772853
 30
0.0
 11
307.474371330288
 21
213.3574215114188
 31
0.0
  0
LINE
  5
A9
330
88
100
AcDbEntity
  8
0
100
AcDbLine
 10
307.474371330288
 20
213.3574215114188
 30
0.0
 11
306.8446639488534
 21
210.5267665998796
 31
0.0
  0
LINE
  5
AA
330
88
100
AcDbEntity
  8
0
100
AcDbLine
 10
306.8446639488534
 20
210.5267665998796
 30
0.0
 11
306.8446639488534
 21
209.8977317140884
 31
0.0
  0
LINE
  5
AB
330
88
100
AcDbEntity
  8
0
100
AcDbLine
 10
306.8446639488534
 20
209.8977317140884
 30
0.0
 11
307.7892264359127
 21
208.9541800769088
 31
0.0
  0
LINE
  5
AC
330
88
100
AcDbEntity
  8
0
100
AcDbLine
 10
307.7892264359127
 20
208.9541800769088
 30
0.0
 11
308.7337875080646
 21
208.010628439729
 31
0.0
  0
LINE
  5
AD
330
88
100
AcDbEntity
  8
0
100
AcDbLine
 10
308.7337875080646
 20
208.010628439729
 30
0.0
 11
310.9377661729004
 21
207.6961109968333
 31
0.0
  0
LINE
  5
AE
330
88
100
AcDbEntity
  8
0
100
AcDbLine
 10
121.3956491038682
 20
173.0992144065438
 30
0.0
 11
125.8036065561256
 21
176.5994549711476
 31
0.0
  0
LINE
  5
AF
330
88
100
AcDbEntity
  8
0
100
AcDbLine
 10
125.8036065561256
 20
176.5994549711476
 30
0.0
 11
130.2115623483044
 21
173.0992
 31
0.0
  0
INSERT
  5
B0
330
88
100
AcDbEntity
  8
0
100
AcDbBlockReference
  2
A$C33195737
 10
202.6279847884666
 20
173.0992
 30
0.0
  0
ENDBLK
  5
B2
330
88
100
AcDbEntity
  8
0
100
AcDbBlockEnd
  0
BLOCK
  5
E8
330
E7
100
AcDbEntity
  8
0
100
AcDbBlockBegin
  2
BHPFLATDECK
 70
     0
 71
     0
 10
0.0
 20
0.0
 30
0.0
  3
BHPFLATDECK
  1

  0
LINE
  5
EA
330
E7
100
AcDbEntity
  8
0
100
AcDbLine
 10
2.203978664835859
 20
-2.201620717254968
 30
0.0
 11
76.19467097349207
 21
-2.201620717254968
 31
0.0
  0
LINE
  5
EB
330
E7
100
AcDbEntity
  8
0
100
AcDbLine
 10
2.518832355553286
 20
5.032275628794309
 30
0.0
 11
-0.3148536907172002
 21
2.201620717255082
 31
0.0
  0
LINE
  5
EC
330
E7
100
AcDbEntity
  8
0
100
AcDbLine
 10
-0.3148536907172002
 20
2.201620717255082
 30
0.0
 11
0.0
 21
0.0
 31
0.0
  0
LINE
  5
ED
330
E7
100
AcDbEntity
  8
0
100
AcDbLine
 10
0.0
 20
0.0
 30
0.0
 11
2.203978664835859
 21
-2.201620717254968
 31
0.0
  0
LINE
  5
EE
330
E7
100
AcDbEntity
  8
0
100
AcDbLine
 10
-0.3148536907172002
 20
37.42755219333594
 30
0.0
 11
5.667372092540973
 21
39.00013802479987
 31
0.0
  0
LINE
  5
EF
330
E7
100
AcDbEntity
  8
0
100
AcDbLine
 10
-10.39018169802239
 20
35.22593147608086
 30
0.0
 11
-13.22386774429288
 21
36.79851730754479
 31
0.0
  0
LINE
  5
F0
330
E7
100
AcDbEntity
  8
0
100
AcDbLine
 10
-10.07532800730519
 20
40.57272454777069
 30
0.0
 11
-7.241641961034702
 21
39.00013802479987
 31
0.0
  0
LINE
  5
F1
330
E7
100
AcDbEntity
  8
0
100
AcDbLine
 10
-13.85357654063478
 20
39.94369035348655
 30
0.0
 11
-13.22386774429288
 21
40.88724199066633
 31
0.0
  0
LINE
  5
F2
330
E7
100
AcDbEntity
  8
0
100
AcDbLine
 10
-13.22386774429288
 20
36.79851730754479
 30
0.0
 11
-14.4832839220694
 21
38.05658638762009
 31
0.0
  0
LINE
  5
F3
330
E7
100
AcDbEntity
  8
0
100
AcDbLine
 10
-14.4832839220694
 20
38.05658638762009
 30
0.0
 11
-13.85357654063478
 21
39.94369035348655
 31
0.0
  0
LINE
  5
F4
330
E7
100
AcDbEntity
  8
0
100
AcDbLine
 10
-13.22386774429288
 20
40.88724199066633
 30
0.0
 11
-10.07532800730519
 21
40.57272454777069
 31
0.0
  0
LINE
  5
F5
330
E7
100
AcDbEntity
  8
0
100
AcDbLine
 10
-7.241641961034702
 20
39.00013802479987
 30
0.0
 11
-2.203977249928357
 21
37.42755219333594
 31
0.0
  0
LINE
  5
F6
330
E7
100
AcDbEntity
  8
0
100
AcDbLine
 10
-2.203977249928357
 20
37.42755219333594
 30
0.0
 11
-0.3148536907172002
 21
37.42755219333594
 31
0.0
  0
LINE
  5
F7
330
E7
100
AcDbEntity
  8
0
100
AcDbLine
 10
13.5387228499178
 20
32.70979331593026
 30
0.0
 11
0.9445624870593292
 21
11.0081035862753
 31
0.0
  0
LINE
  5
F8
330
E7
100
AcDbEntity
  8
0
100
AcDbLine
 10
0.9445624870593292
 20
11.0081035862753
 30
0.0
 11
2.518832355553286
 21
5.032275628794309
 31
0.0
  0
LINE
  5
F9
330
E7
100
AcDbEntity
  8
0
100
AcDbLine
 10
16.05755520547086
 20
37.11303475044031
 30
0.0
 11
13.5387228499178
 21
32.70979331593026
 31
0.0
  0
LINE
  5
FA
330
E7
100
AcDbEntity
  8
0
100
AcDbLine
 10
5.667372092540973
 20
39.00013802479987
 30
0.0
 11
10.07532800730519
 21
39.94369035348655
 31
0.0
  0
LINE
  5
FB
330
E7
100
AcDbEntity
  8
0
100
AcDbLine
 10
12.90901546848318
 20
40.57272454777069
 30
0.0
 11
15.42784640912896
 21
40.57272454777069
 31
0.0
  0
LINE
  5
FC
330
E7
100
AcDbEntity
  8
0
100
AcDbLine
 10
10.07532800730519
 20
39.94369035348655
 30
0.0
 11
12.90901546848318
 21
40.57272454777069
 31
0.0
  0
LINE
  5
FD
330
E7
100
AcDbEntity
  8
0
100
AcDbLine
 10
16.37240889618806
 20
39.00013802479987
 30
0.0
 11
16.05755520547086
 21
37.11303475044031
 31
0.0
  0
LINE
  5
FE
330
E7
100
AcDbEntity
  8
0
100
AcDbLine
 10
15.42784640912896
 20
40.57272454777069
 30
0.0
 11
16.37240889618806
 21
39.00013802479987
 31
0.0
  0
LINE
  5
FF
330
E7
100
AcDbEntity
  8
0
100
AcDbLine
 10
166.2429212110292
 20
-2.201635189943659
 30
0.0
 11
238.6593423426889
 21
-2.201635123798724
 31
0.0
  0
LINE
  5
100
330
E7
100
AcDbEntity
  8
0
100
AcDbLine
 10
85.01058421792823
 20
-2.201635123798724
 30
0.0
 11
157.4270066580905
 21
-2.201635123798724
 31
0.0
  0
LINE
  5
101
330
E7
100
AcDbEntity
  8
0
100
AcDbLine
 10
80.60262842574949
 20
1.298619847348903
 30
0.0
 11
85.01058421792823
 21
-2.201635123798724
 31
0.0
  0
LINE
  5
102
330
E7
100
AcDbEntity
  8
0
100
AcDbLine
 10
76.19467097349207
 20
-2.201620717254968
 30
0.0
 11
80.60262842574949
 21
1.298619847348903
 31
0.0
  0
INSERT
  5
103
330
E7
100
AcDbEntity
  8
0
100
AcDbBlockReference
  2
A$C33195737
 10
157.4270066580905
 20
-2.201635123798724
 30
0.0
  0
LINE
  5
104
330
E7
100
AcDbEntity
  8
0
100
AcDbLine
 10
232.6771165594307
 20
41.51627618495047
 30
0.0
 11
261.0139770221351
 21
40.88724199066633
 31
0.0
  0
LINE
  5
105
330
E7
100
AcDbEntity
  8
0
100
AcDbLine
 10
238.6593423426889
 20
-2.201635123798724
 30
0.0
 11
247.4752555871251
 21
5.346793071689831
 31
0.0
  0
LINE
  5
106
330
E7
100
AcDbEntity
  8
0
100
AcDbLine
 10
246.8455467907829
 20
7.862931231840548
 30
0.0
 11
228.8988680261011
 21
38.37110383051572
 31
0.0
  0
LINE
  5
107
330
E7
100
AcDbEntity
  8
0
100
AcDbLine
 10
247.4752555871251
 20
5.346793071689831
 30
0.0
 11
246.8455467907829
 21
7.862931231840548
 31
0.0
  0
LINE
  5
108
330
E7
100
AcDbEntity
  8
0
100
AcDbLine
 10
230.4731378945949
 20
41.20175874205484
 30
0.0
 11
232.6771165594307
 21
41.51627618495047
 31
0.0
  0
LINE
  5
109
330
E7
100
AcDbEntity
  8
0
100
AcDbLine
 10
229.2137217168183
 20
39.62917291059102
 30
0.0
 11
230.4731378945949
 21
41.20175874205484
 31
0.0
  0
LINE
  5
10A
330
E7
100
AcDbEntity
  8
0
100
AcDbLine
 10
228.8988680261011
 20
38.37110383051572
 30
0.0
 11
229.2137217168183
 21
39.62917291059102
 31
0.0
  0
LINE
  5
10B
330
E7
100
AcDbEntity
  8
0
100
AcDbLine
 10
262.2733931999119
 20
38.05658638762009
 30
0.0
 11
261.6436858184773
 21
35.22593147608086
 31
0.0
  0
LINE
  5
10C
330
E7
100
AcDbEntity
  8
0
100
AcDbLine
 10
262.5882483055366
 20
33.65334495311004
 30
0.0
 11
263.5328093776884
 21
32.70979331593026
 31
0.0
  0
LINE
  5
10D
330
E7
100
AcDbEntity
  8
0
100
AcDbLine
 10
261.6436858184773
 20
34.5968965902897
 30
0.0
 11
262.5882483055366
 21
33.65334495311004
 31
0.0
  0
LINE
  5
10E
330
E7
100
AcDbEntity
  8
0
100
AcDbLine
 10
261.6436858184773
 20
35.22593147608086
 30
0.0
 11
261.6436858184773
 21
34.5968965902897
 31
0.0
  0
LINE
  5
10F
330
E7
100
AcDbEntity
  8
0
100
AcDbLine
 10
263.5328093776884
 20
32.70979331593026
 30
0.0
 11
265.7367880425243
 21
32.39527587303462
 31
0.0
  0
LINE
  5
110
330
E7
100
AcDbEntity
  8
0
100
AcDbLine
 10
261.9585395091945
 20
39.94369035348655
 30
0.0
 11
262.2733931999119
 21
38.05658638762009
 31
0.0
  0
LINE
  5
111
330
E7
100
AcDbEntity
  8
0
100
AcDbLine
 10
261.0139770221351
 20
40.88724199066633
 30
0.0
 11
261.9585395091945
 21
39.94369035348655
 31
0.0
  0
ENDBLK
  5
E9
330
E7
100
AcDbEntity
  8
0
100
AcDbBlockEnd
  0
ENDSEC
  0
SECTION
  2
ENTITIES
  0
INSERT
  5
112
330
19
100
AcDbEntity
  8
0
100
AcDbBlockReference
  2
BHPFLATDECK
 10
1.0
 20
1.0
 30
0.0
  0
ENDSEC
  0
SECTION
  2
OBJECTS
  0
DICTIONARY
  5
C
330
0
100
AcDbDictionary
  3
ACAD_GROUP
350
D
  3
ACAD_LAYOUT
350
B9
  3
ACAD_MLINESTYLE
350
E
  3
ACAD_PLOTSETTINGS
350
BA
  3
ACDBHEADERROUNDTRIPXREC
350
143
  3
ACDBVARIABLEDICTIONARY
350
4C
  0
DICTIONARY
  5
118
330
114
100
AcDbDictionary
280
     1
  3
ACAD_XREC_ROUNDTRIP
360
163
  0
DICTIONARY
  5
50
330
4F
100
AcDbDictionary
280
     1
  3
ACAD_LAYOUTSELFREF
360
51
  0
DICTIONARY
  5
D
102
{ACAD_REACTORS
330
C
102
}
330
C
100
AcDbDictionary
  0
DICTIONARY
  5
B9
102
{ACAD_REACTORS
330
C
102
}
330
C
100
AcDbDictionary
  0
DICTIONARY
  5
E
102
{ACAD_REACTORS
330
C
102
}
330
C
100
AcDbDictionary
  3
STANDARD
350
1C
  0
DICTIONARY
  5
BA
102
{ACAD_REACTORS
330
C
102
}
330
C
100
AcDbDictionary
  0
DICTIONARY
  5
143
102
{ACAD_REACTORS
330
C
102
}
330
C
100
AcDbDictionary
  3
CEPSNTYPE
350
14C
  3
DIMSTYLEDATA
350
162
  3
FINGERPRINTGUID
350
14D
  3
HYPERLINKBASE
350
146
  3
INSUNITS
350
14B
  3
LAYOUTDICT
350
148
  3
LWETCUNION
350
14A
  3
PLOTSETDICT
350
149
  3
PSVPSCALE
350
14F
  3
PUCSBASE
350
152
  3
PUCSORGBACK
350
158
  3
PUCSORGBOTTOM
350
154
  3
PUCSORGFRONT
350
157
  3
PUCSORGLEFT
350
155
  3
PUCSORGRIGHT
350
156
  3
PUCSORGTOP
350
153
  3
PUCSORTHOREF
350
150
  3
PUCSORTHOVIEW
350
151
  3
STYLESHEET
350
147
  3
TSTACKALIGN
350
144
  3
TSTACKSIZE
350
145
  3
UCSBASE
350
15B
  3
UCSORGBACK
350
161
  3
UCSORGBOTTOM
350
15D
  3
UCSORGFRONT
350
160
  3
UCSORGLEFT
350
15E
  3
UCSORGRIGHT
350
15F
  3
UCSORGTOP
350
15C
  3
UCSORTHOREF
350
159
  3
UCSORTHOVIEW
350
15A
  3
VERSIONGUID
350
14E
  0
DICTIONARY
  5
4C
102
{ACAD_REACTORS
330
C
102
}
330
C
100
AcDbDictionary
  3
DIMADEC
350
4D
  0
XRECORD
  5
163
102
{ACAD_REACTORS
330
118
102
}
330
118
100
AcDbXrecord
102
UCS
 74
     0
 71
     1
 10
0.0
 20
0.0
 30
0.0
 10
1.0
 20
0.0
 30
0.0
 10
0.0
 20
1.0
 30
0.0
146
0.0
 79
     0
102
VIEW
281
     0
  0
XRECORD
  5
51
102
{ACAD_REACTORS
330
50
102
}
330
50
100
AcDbXrecord
340
4F
  0
MLINESTYLE
  5
1C
102
{ACAD_REACTORS
330
E
102
}
330
E
100
AcDbMlineStyle
  2
STANDARD
 70
     0
  3

 62
     0
 51
90.0
 52
90.0
 71
     2
 49
0.5
 62
   256
  6
BYLAYER
 49
-0.5
 62
   256
  6
BYLAYER
  0
XRECORD
  5
14C
102
{ACAD_REACTORS
330
143
102
}
330
143
100
AcDbXrecord
 90
        0
  0
XRECORD
  5
162
102
{ACAD_REACTORS
330
143
102
}
330
143
100
AcDbXrecord
1000
DSTYLE
1002
{
1070
   340
340
10
1002
}
  0
XRECORD
  5
14D
102
{ACAD_REACTORS
330
143
102
}
330
143
100
AcDbXrecord
  1
{3218A902-4C06-11D6-9184-0010A49A4776}
  0
XRECORD
  5
146
102
{ACAD_REACTORS
330
143
102
}
330
143
100
AcDbXrecord
  1

  0
XRECORD
  5
14B
102
{ACAD_REACTORS
330
143
102
}
330
143
100
AcDbXrecord
 90
        0
  0
XRECORD
  5
148
102
{ACAD_REACTORS
330
143
102
}
330
143
100
AcDbXrecord
340
B9
  0
XRECORD
  5
14A
102
{ACAD_REACTORS
330
143
102
}
330
143
100
AcDbXrecord
 90
    10752
  0
XRECORD
  5
149
102
{ACAD_REACTORS
330
143
102
}
330
143
100
AcDbXrecord
340
BA
  0
XRECORD
  5
14F
102
{ACAD_REACTORS
330
143
102
}
330
143
100
AcDbXrecord
 40
0.0
  0
XRECORD
  5
152
102
{ACAD_REACTORS
330
143
102
}
330
143
100
AcDbXrecord
340
0
  0
XRECORD
  5
158
102
{ACAD_REACTORS
330
143
102
}
330
143
100
AcDbXrecord
 10
0.0
 20
0.0
 30
0.0
  0
XRECORD
  5
154
102
{ACAD_REACTORS
330
143
102
}
330
143
100
AcDbXrecord
 10
0.0
 20
0.0
 30
0.0
  0
XRECORD
  5
157
102
{ACAD_REACTORS
330
143
102
}
330
143
100
AcDbXrecord
 10
0.0
 20
0.0
 30
0.0
  0
XRECORD
  5
155
102
{ACAD_REACTORS
330
143
102
}
330
143
100
AcDbXrecord
 10
0.0
 20
0.0
 30
0.0
  0
XRECORD
  5
156
102
{ACAD_REACTORS
330
143
102
}
330
143
100
AcDbXrecord
 10
0.0
 20
0.0
 30
0.0
  0
XRECORD
  5
153
102
{ACAD_REACTORS
330
143
102
}
330
143
100
AcDbXrecord
 10
0.0
 20
0.0
 30
0.0
  0
XRECORD
  5
150
102
{ACAD_REACTORS
330
143
102
}
330
143
100
AcDbXrecord
340
0
  0
XRECORD
  5
151
102
{ACAD_REACTORS
330
143
102
}
330
143
100
AcDbXrecord
 70
     0
  0
XRECORD
  5
147
102
{ACAD_REACTORS
330
143
102
}
330
143
100
AcDbXrecord
  1

  0
XRECORD
  5
144
102
{ACAD_REACTORS
330
143
102
}
330
143
100
AcDbXrecord
 90
        1
  0
XRECORD
  5
145
102
{ACAD_REACTORS
330
143
102
}
330
143
100
AcDbXrecord
 90
       70
  0
XRECORD
  5
15B
102
{ACAD_REACTORS
330
143
102
}
330
143
100
AcDbXrecord
340
0
  0
XRECORD
  5
161
102
{ACAD_REACTORS
330
143
102
}
330
143
100
AcDbXrecord
 10
0.0
 20
0.0
 30
0.0
  0
XRECORD
  5
15D
102
{ACAD_REACTORS
330
143
102
}
330
143
100
AcDbXrecord
 10
0.0
 20
0.0
 30
0.0
  0
XRECORD
  5
160
102
{ACAD_REACTORS
330
143
102
}
330
143
100
AcDbXrecord
 10
0.0
 20
0.0
 30
0.0
  0
XRECORD
  5
15E
102
{ACAD_REACTORS
330
143
102
}
330
143
100
AcDbXrecord
 10
0.0
 20
0.0
 30
0.0
  0
XRECORD
  5
15F
102
{ACAD_REACTORS
330
143
102
}
330
143
100
AcDbXrecord
 10
0.0
 20
0.0
 30
0.0
  0
XRECORD
  5
15C
102
{ACAD_REACTORS
330
143
102
}
330
143
100
AcDbXrecord
 10
0.0
 20
0.0
 30
0.0
  0
XRECORD
  5
159
102
{ACAD_REACTORS
330
143
102
}
330
143
100
AcDbXrecord
340
0
  0
XRECORD
  5
15A
102
{ACAD_REACTORS
330
143
102
}
330
143
100
AcDbXrecord
 70
     0
  0
XRECORD
  5
14E
102
{ACAD_REACTORS
330
143
102
}
330
143
100
AcDbXrecord
  1
{3218A905-4C06-11D6-9184-0010A49A4776}
  0
DICTIONARYVAR
  5
4D
102
{ACAD_REACTORS
330
4C
102
}
330
4C
100
DictionaryVariables
280
     0
  1
0
  0
ENDSEC
  0
EOF
