  0
SECTION
  2
HEADER
  9
$ACADVER
  1
AC1015
  9
$ACADMAINTVER
 70
     6
  9
$DWGCODEPAGE
  3
ANSI_1252
  9
$INSBASE
 10
0.0
 20
0.0
 30
0.0
  9
$EXTMIN
 10
1.0
 20
0.8111456180001642
 30
0.0
  9
$EXTMAX
 10
888.4500709199997
 20
13.37770876399968
 30
0.0
  9
$LIMMIN
 10
0.0
 20
0.0
  9
$LIMMAX
 10
12.0
 20
9.0
  9
$ORTHOMODE
 70
     0
  9
$REGENMODE
 70
     1
  9
$FILLMODE
 70
     1
  9
$QTEXTMODE
 70
     0
  9
$MIRRTEXT
 70
     1
  9
$LTSCALE
 40
1.0
  9
$ATTMODE
 70
     1
  9
$TEXTSIZE
 40
0.2
  9
$TRACEWID
 40
0.05
  9
$TEXTSTYLE
  7
Standard
  9
$CLAYER
  8
0
  9
$CELTYPE
  6
ByLayer
  9
$CECOLOR
 62
   256
  9
$CELTSCALE
 40
1.0
  9
$DISPSILH
 70
     0
  9
$DIMSCALE
 40
1.0
  9
$DIMASZ
 40
0.18
  9
$DIMEXO
 40
0.0625
  9
$DIMDLI
 40
0.38
  9
$DIMRND
 40
0.0
  9
$DIMDLE
 40
0.0
  9
$DIMEXE
 40
0.18
  9
$DIMTP
 40
0.0
  9
$DIMTM
 40
0.0
  9
$DIMTXT
 40
0.18
  9
$DIMCEN
 40
0.09
  9
$DIMTSZ
 40
0.0
  9
$DIMTOL
 70
     0
  9
$DIMLIM
 70
     0
  9
$DIMTIH
 70
     1
  9
$DIMTOH
 70
     1
  9
$DIMSE1
 70
     0
  9
$DIMSE2
 70
     0
  9
$DIMTAD
 70
     0
  9
$DIMZIN
 70
     0
  9
$DIMBLK
  1

  9
$DIMASO
 70
     1
  9
$DIMSHO
 70
     1
  9
$DIMPOST
  1

  9
$DIMAPOST
  1

  9
$DIMALT
 70
     0
  9
$DIMALTD
 70
     2
  9
$DIMALTF
 40
25.4
  9
$DIMLFAC
 40
1.0
  9
$DIMTOFL
 70
     0
  9
$DIMTVP
 40
0.0
  9
$DIMTIX
 70
     0
  9
$DIMSOXD
 70
     0
  9
$DIMSAH
 70
     0
  9
$DIMBLK1
  1

  9
$DIMBLK2
  1

  9
$DIMSTYLE
  2
Standard
  9
$DIMCLRD
 70
     0
  9
$DIMCLRE
 70
     0
  9
$DIMCLRT
 70
     0
  9
$DIMTFAC
 40
1.0
  9
$DIMGAP
 40
0.09
  9
$DIMJUST
 70
     0
  9
$DIMSD1
 70
     0
  9
$DIMSD2
 70
     0
  9
$DIMTOLJ
 70
     1
  9
$DIMTZIN
 70
     0
  9
$DIMALTZ
 70
     0
  9
$DIMALTTZ
 70
     0
  9
$DIMUPT
 70
     0
  9
$DIMDEC
 70
     4
  9
$DIMTDEC
 70
     4
  9
$DIMALTU
 70
     2
  9
$DIMALTTD
 70
     2
  9
$DIMTXSTY
  7
Standard
  9
$DIMAUNIT
 70
     0
  9
$DIMADEC
 70
     0
  9
$DIMALTRND
 40
0.0
  9
$DIMAZIN
 70
     0
  9
$DIMDSEP
 70
    46
  9
$DIMATFIT
 70
     3
  9
$DIMFRAC
 70
     0
  9
$DIMLDRBLK
  1

  9
$DIMLUNIT
 70
     2
  9
$DIMLWD
 70
    -2
  9
$DIMLWE
 70
    -2
  9
$DIMTMOVE
 70
     0
  9
$LUNITS
 70
     2
  9
$LUPREC
 70
     4
  9
$SKETCHINC
 40
0.1
  9
$FILLETRAD
 40
2.0
  9
$AUNITS
 70
     0
  9
$AUPREC
 70
     0
  9
$MENU
  1
.
  9
$ELEVATION
 40
0.0
  9
$PELEVATION
 40
0.0
  9
$THICKNESS
 40
0.0
  9
$LIMCHECK
 70
     0
  9
$CHAMFERA
 40
0.5
  9
$CHAMFERB
 40
0.5
  9
$CHAMFERC
 40
1.0
  9
$CHAMFERD
 40
0.0
  9
$SKPOLY
 70
     0
  9
$TDCREATE
 40
2452381.586578356
  9
$TDUCREATE
 40
2452381.149078356
  9
$TDUPDATE
 40
2453761.610580682
  9
$TDUUPDATE
 40
2453761.173080682
  9
$TDINDWG
 40
0.0567832060
  9
$TDUSRTIMER
 40
0.0567824421
  9
$USRTIMER
 70
     1
  9
$ANGBASE
 50
0.0
  9
$ANGDIR
 70
     0
  9
$PDMODE
 70
     0
  9
$PDSIZE
 40
0.0
  9
$PLINEWID
 40
0.0
  9
$SPLFRAME
 70
     0
  9
$SPLINETYPE
 70
     6
  9
$SPLINESEGS
 70
     8
  9
$HANDSEED
  5
3A0
  9
$SURFTAB1
 70
     6
  9
$SURFTAB2
 70
     6
  9
$SURFTYPE
 70
     6
  9
$SURFU
 70
     6
  9
$SURFV
 70
     6
  9
$UCSBASE
  2

  9
$UCSNAME
  2

  9
$UCSORG
 10
0.0
 20
0.0
 30
0.0
  9
$UCSXDIR
 10
1.0
 20
0.0
 30
0.0
  9
$UCSYDIR
 10
0.0
 20
1.0
 30
0.0
  9
$UCSORTHOREF
  2

  9
$UCSORTHOVIEW
 70
     0
  9
$UCSORGTOP
 10
0.0
 20
0.0
 30
0.0
  9
$UCSORGBOTTOM
 10
0.0
 20
0.0
 30
0.0
  9
$UCSORGLEFT
 10
0.0
 20
0.0
 30
0.0
  9
$UCSORGRIGHT
 10
0.0
 20
0.0
 30
0.0
  9
$UCSORGFRONT
 10
0.0
 20
0.0
 30
0.0
  9
$UCSORGBACK
 10
0.0
 20
0.0
 30
0.0
  9
$PUCSBASE
  2

  9
$PUCSNAME
  2

  9
$PUCSORG
 10
0.0
 20
0.0
 30
0.0
  9
$PUCSXDIR
 10
1.0
 20
0.0
 30
0.0
  9
$PUCSYDIR
 10
0.0
 20
1.0
 30
0.0
  9
$PUCSORTHOREF
  2

  9
$PUCSORTHOVIEW
 70
     0
  9
$PUCSORGTOP
 10
0.0
 20
0.0
 30
0.0
  9
$PUCSORGBOTTOM
 10
0.0
 20
0.0
 30
0.0
  9
$PUCSORGLEFT
 10
0.0
 20
0.0
 30
0.0
  9
$PUCSORGRIGHT
 10
0.0
 20
0.0
 30
0.0
  9
$PUCSORGFRONT
 10
0.0
 20
0.0
 30
0.0
  9
$PUCSORGBACK
 10
0.0
 20
0.0
 30
0.0
  9
$USERI1
 70
     0
  9
$USERI2
 70
     0
  9
$USERI3
 70
     0
  9
$USERI4
 70
     0
  9
$USERI5
 70
     0
  9
$USERR1
 40
0.0
  9
$USERR2
 40
0.0
  9
$USERR3
 40
0.0
  9
$USERR4
 40
0.0
  9
$USERR5
 40
0.0
  9
$WORLDVIEW
 70
     1
  9
$SHADEDGE
 70
     3
  9
$SHADEDIF
 70
    70
  9
$TILEMODE
 70
     1
  9
$MAXACTVP
 70
    48
  9
$PINSBASE
 10
0.0
 20
0.0
 30
0.0
  9
$PLIMCHECK
 70
     0
  9
$PEXTMIN
 10
1.000000000000000E+20
 20
1.000000000000000E+20
 30
1.000000000000000E+20
  9
$PEXTMAX
 10
-1.000000000000000E+20
 20
-1.000000000000000E+20
 30
-1.000000000000000E+20
  9
$PLIMMIN
 10
0.0
 20
0.0
  9
$PLIMMAX
 10
12.0
 20
9.0
  9
$UNITMODE
 70
     0
  9
$VISRETAIN
 70
     1
  9
$PLINEGEN
 70
     0
  9
$PSLTSCALE
 70
     1
  9
$TREEDEPTH
 70
  3020
  9
$CMLSTYLE
  2
Standard
  9
$CMLJUST
 70
     0
  9
$CMLSCALE
 40
1.0
  9
$PROXYGRAPHICS
 70
     1
  9
$MEASUREMENT
 70
     0
  9
$CELWEIGHT
370
    -1
  9
$ENDCAPS
280
     0
  9
$JOINSTYLE
280
     0
  9
$LWDISPLAY
290
     0
  9
$INSUNITS
 70
     4
  9
$HYPERLINKBASE
  1

  9
$STYLESHEET
  1

  9
$XEDIT
290
     1
  9
$CEPSNTYPE
380
     0
  9
$PSTYLEMODE
290
     1
  9
$FINGERPRINTGUID
  2
{FDEAD576-A652-11D2-9A35-0060089B3A3F}
  9
$VERSIONGUID
  2
{B2959B19-DA94-412B-9483-2FC62FBA17AC}
  9
$EXTNAMES
290
     1
  9
$PSVPSCALE
 40
0.0
  9
$OLESTARTUP
290
     0
  0
ENDSEC
  0
SECTION
  2
CLASSES
  0
CLASS
  1
ACDBDICTIONARYWDFLT
  2
AcDbDictionaryWithDefault
  3
AutoCAD 2000
 90
        0
280
     0
281
     0
  0
CLASS
  1
ACDBPLACEHOLDER
  2
AcDbPlaceHolder
  3
AutoCAD 2000
 90
        0
280
     0
281
     0
  0
CLASS
  1
LAYOUT
  2
AcDbLayout
  3
AutoCAD 2000
 90
        0
280
     0
281
     0
  0
CLASS
  1
LONG_TRANSACTION
  2
AcDbLongTransaction
  3
AutoCAD 2000
 90
    32768
280
     0
281
     0
  0
CLASS
  1
LWPOLYLINE
  2
AcDbPolyline
  3
AutoCAD 2000
 90
    32768
280
     0
281
     1
  0
CLASS
  1
HATCH
  2
AcDbHatch
  3
AutoCAD 2000
 90
    32768
280
     0
281
     1
  0
CLASS
  1
XRECORD
  2
AcDbXrecord
  3
AutoCAD 2000
 90
    32768
280
     0
281
     0
  0
ENDSEC
  0
SECTION
  2
TABLES
  0
TABLE
  2
VPORT
  5
8
330
0
100
AcDbSymbolTable
 70
     2
  0
VPORT
  5
37F
330
8
100
AcDbSymbolTableRecord
100
AcDbViewportTableRecord
  2
*Active
 70
     0
 10
0.0
 20
0.0
 11
1.0
 21
1.0
 12
448.5704368533506
 22
68.22825471353207
 13
0.0
 23
0.0
 14
0.5
 24
0.5
 15
0.5
 25
0.5
 16
0.0
 26
0.0
 36
1.0
 17
0.0
 27
0.0
 37
0.0
 40
624.5760397776185
 41
1.567708333333333
 42
50.0
 43
0.0
 44
0.0
 50
0.0
 51
0.0
 71
     0
 72
   100
 73
     1
 74
     2
 75
     0
 76
     0
 77
     0
 78
     0
281
     0
 65
     1
110
0.0
120
0.0
130
0.0
111
1.0
121
0.0
131
0.0
112
0.0
122
1.0
132
0.0
 79
     0
146
0.0
  0
ENDTAB
  0
TABLE
  2
LTYPE
  5
5
330
0
100
AcDbSymbolTable
 70
     1
  0
LTYPE
  5
14
330
5
100
AcDbSymbolTableRecord
100
AcDbLinetypeTableRecord
  2
ByBlock
 70
     0
  3

 72
    65
 73
     0
 40
0.0
  0
LTYPE
  5
15
330
5
100
AcDbSymbolTableRecord
100
AcDbLinetypeTableRecord
  2
ByLayer
 70
     0
  3

 72
    65
 73
     0
 40
0.0
  0
LTYPE
  5
16
330
5
100
AcDbSymbolTableRecord
100
AcDbLinetypeTableRecord
  2
Continuous
 70
     0
  3
Solid line
 72
    65
 73
     0
 40
0.0
  0
ENDTAB
  0
TABLE
  2
LAYER
  5
2
330
0
100
AcDbSymbolTable
 70
     1
  0
LAYER
  5
10
330
2
100
AcDbSymbolTableRecord
100
AcDbLayerTableRecord
  2
0
 70
     0
 62
     7
  6
Continuous
370
    -3
390
F
  0
ENDTAB
  0
TABLE
  2
STYLE
  5
3
330
0
100
AcDbSymbolTable
 70
     1
  0
STYLE
  5
11
330
3
100
AcDbSymbolTableRecord
100
AcDbTextStyleTableRecord
  2
Standard
 70
     0
 40
0.0
 41
1.0
 50
0.0
 71
     0
 42
0.2
  3
txt
  4

  0
ENDTAB
  0
TABLE
  2
VIEW
  5
6
330
0
100
AcDbSymbolTable
 70
     0
  0
ENDTAB
  0
TABLE
  2
UCS
  5
7
330
0
100
AcDbSymbolTable
 70
     0
  0
ENDTAB
  0
TABLE
  2
APPID
  5
9
330
0
100
AcDbSymbolTable
 70
     2
  0
APPID
  5
12
330
9
100
AcDbSymbolTableRecord
100
AcDbRegAppTableRecord
  2
ACAD
 70
     0
  0
APPID
  5
26D
330
9
100
AcDbSymbolTableRecord
100
AcDbRegAppTableRecord
  2
CONTENTBLOCKICON
 70
     0
  0
ENDTAB
  0
TABLE
  2
DIMSTYLE
  5
A
330
0
100
AcDbSymbolTable
 70
     1
100
AcDbDimStyleTable
 71
     0
  0
DIMSTYLE
105
27
330
A
100
AcDbSymbolTableRecord
100
AcDbDimStyleTableRecord
  2
Standard
 70
     0
340
11
  0
ENDTAB
  0
TABLE
  2
BLOCK_RECORD
  5
1
330
0
100
AcDbSymbolTable
 70
     1
  0
BLOCK_RECORD
  5
1F
102
{ACAD_XDICTIONARY
360
232
102
}
330
1
100
AcDbSymbolTableRecord
100
AcDbBlockTableRecord
  2
*Model_Space
340
22
  0
BLOCK_RECORD
  5
1B
102
{ACAD_XDICTIONARY
360
234
102
}
330
1
100
AcDbSymbolTableRecord
100
AcDbBlockTableRecord
  2
*Paper_Space
340
1E
  0
BLOCK_RECORD
  5
23
102
{ACAD_XDICTIONARY
360
236
102
}
330
1
100
AcDbSymbolTableRecord
100
AcDbBlockTableRecord
  2
*Paper_Space0
340
26
  0
ENDTAB
  0
ENDSEC
  0
SECTION
  2
BLOCKS
  0
BLOCK
  5
20
330
1F
100
AcDbEntity
  8
0
100
AcDbBlockBegin
  2
*Model_Space
 70
     0
 10
0.0
 20
0.0
 30
0.0
  3
*Model_Space
  1

  0
ENDBLK
  5
21
330
1F
100
AcDbEntity
  8
0
100
AcDbBlockEnd
  0
BLOCK
  5
1C
330
1B
100
AcDbEntity
 67
     1
  8
0
100
AcDbBlockBegin
  2
*Paper_Space
 70
     0
 10
0.0
 20
0.0
 30
0.0
  3
*Paper_Space
  1

  0
ENDBLK
  5
1D
330
1B
100
AcDbEntity
 67
     1
  8
0
100
AcDbBlockEnd
  0
BLOCK
  5
24
330
23
100
AcDbEntity
  8
0
100
AcDbBlockBegin
  2
*Paper_Space0
 70
     0
 10
0.0
 20
0.0
 30
0.0
  3
*Paper_Space0
  1

  0
ENDBLK
  5
25
330
23
100
AcDbEntity
  8
0
100
AcDbBlockEnd
  0
ENDSEC
  0
SECTION
  2
ENTITIES
  0
LINE
  5
31E
330
1F
100
AcDbEntity
  8
0
100
AcDbLine
 10
1.0
 20
1.0
 30
0.0
 11
8.800000000000004
 21
11.4
 31
0.0
  0
ARC
  5
31F
330
1F
100
AcDbEntity
  8
0
100
AcDbCircle
 10
12.0
 20
9.0
 30
0.0
 40
4.0
100
AcDbArc
 50
90.00000000000005
 51
143.1301023541559
  0
LINE
  5
320
330
1F
100
AcDbEntity
  8
0
100
AcDbLine
 10
12.0
 20
13.0
 30
0.0
 11
25.0
 21
13.0
 31
0.0
  0
ARC
  5
321
330
1F
100
AcDbEntity
  8
0
100
AcDbCircle
 10
25.0
 20
9.0
 30
0.0
 40
4.0
100
AcDbArc
 50
36.8698976458441
 51
90.0
  0
LINE
  5
322
330
1F
100
AcDbEntity
  8
0
100
AcDbLine
 10
28.19999999999999
 20
11.4
 30
0.0
 11
35.39999999999997
 21
1.799999999999997
 31
0.0
  0
ARC
  5
323
330
1F
100
AcDbEntity
  8
0
100
AcDbCircle
 10
36.98080823999996
 20
2.985606179999993
 30
0.0
 40
1.976010299999988
100
AcDbArc
 50
216.869897645844
 51
270.0
  0
LINE
  5
324
330
1F
100
AcDbEntity
  8
0
100
AcDbLine
 10
36.98080823999996
 20
1.009595880000005
 30
0.0
 11
62.66894213999999
 21
1.00959588
 31
0.0
  0
LINE
  5
325
330
1F
100
AcDbEntity
  8
0
100
AcDbLine
 10
62.66894213999999
 20
1.00959588
 30
0.0
 11
64.64495244
 21
2.985606179999998
 31
0.0
  0
LINE
  5
326
330
1F
100
AcDbEntity
  8
0
100
AcDbLine
 10
64.64495244
 20
2.985606179999998
 30
0.0
 11
83.41705028999998
 21
2.985606179999998
 31
0.0
  0
LINE
  5
327
330
1F
100
AcDbEntity
  8
0
100
AcDbLine
 10
83.41705028999998
 20
2.985606179999998
 30
0.0
 11
85.39306058999997
 21
1.00959588
 31
0.0
  0
LINE
  5
328
330
1F
100
AcDbEntity
  8
0
100
AcDbLine
 10
85.39306058999997
 20
1.00959588
 30
0.0
 11
112.0691996399999
 21
1.00959588
 31
0.0
  0
LINE
  5
329
330
1F
100
AcDbEntity
  8
0
100
AcDbLine
 10
112.0691996399999
 20
1.00959588
 30
0.0
 11
114.0452099399999
 21
2.985606179999998
 31
0.0
  0
LINE
  5
32A
330
1F
100
AcDbEntity
  8
0
100
AcDbLine
 10
114.0452099399999
 20
2.985606179999998
 30
0.0
 11
132.8173077899999
 21
2.985606179999998
 31
0.0
  0
LINE
  5
32B
330
1F
100
AcDbEntity
  8
0
100
AcDbLine
 10
132.8173077899999
 20
2.985606179999998
 30
0.0
 11
134.7933180899999
 21
1.00959588
 31
0.0
  0
LINE
  5
32C
330
1F
100
AcDbEntity
  8
0
100
AcDbLine
 10
134.7933180899999
 20
1.00959588
 30
0.0
 11
161.46945714
 21
1.00959588
 31
0.0
  0
LINE
  5
32D
330
1F
100
AcDbEntity
  8
0
100
AcDbLine
 10
161.46945714
 20
1.00959588
 30
0.0
 11
163.4454674399998
 21
2.985606179999998
 31
0.0
  0
LINE
  5
32E
330
1F
100
AcDbEntity
  8
0
100
AcDbLine
 10
163.4454674399998
 20
2.985606179999998
 30
0.0
 11
182.2175652899999
 21
2.985606179999998
 31
0.0
  0
LINE
  5
32F
330
1F
100
AcDbEntity
  8
0
100
AcDbLine
 10
182.2175652899999
 20
2.985606179999998
 30
0.0
 11
184.1935755899999
 21
1.00959588
 31
0.0
  0
LINE
  5
330
330
1F
100
AcDbEntity
  8
0
100
AcDbLine
 10
184.1935755899999
 20
1.00959588
 30
0.0
 11
209.8817094899999
 21
1.00959588
 31
0.0
  0
ARC
  5
331
330
1F
100
AcDbEntity
  8
0
100
AcDbCircle
 10
209.8817094899999
 20
2.985606180000015
 30
0.0
 40
1.976010300000015
100
AcDbArc
 50
270.0
 51
323.1301023541556
  0
LINE
  5
332
330
1F
100
AcDbEntity
  8
0
100
AcDbLine
 10
211.4625177299999
 20
1.8
 30
0.0
 11
218.6625177299999
 21
11.39999999999999
 31
0.0
  0
ARC
  5
333
330
1F
100
AcDbEntity
  8
0
100
AcDbCircle
 10
221.8625177299999
 20
9.000000000000005
 30
0.0
 40
3.999999999999986
100
AcDbArc
 50
90.0
 51
143.1301023541559
  0
LINE
  5
334
330
1F
100
AcDbEntity
  8
0
100
AcDbLine
 10
221.8625177299999
 20
13.0
 30
0.0
 11
234.8625177299999
 21
13.0
 31
0.0
  0
ARC
  5
335
330
1F
100
AcDbEntity
  8
0
100
AcDbCircle
 10
234.8625177299999
 20
9.000000000000008
 30
0.0
 40
3.999999999999991
100
AcDbArc
 50
36.86989764584407
 51
90.0
  0
LINE
  5
336
330
1F
100
AcDbEntity
  8
0
100
AcDbLine
 10
238.0625177299999
 20
11.4
 30
0.0
 11
245.2625177299999
 21
1.799999999999997
 31
0.0
  0
ARC
  5
337
330
1F
100
AcDbEntity
  8
0
100
AcDbCircle
 10
246.8433259699998
 20
2.985606179999961
 30
0.0
 40
1.976010299999963
100
AcDbArc
 50
216.8698976458434
 51
269.9999999999992
  0
LINE
  5
338
330
1F
100
AcDbEntity
  8
0
100
AcDbLine
 10
246.8433259699998
 20
1.009595879999994
 30
0.0
 11
272.5314598699999
 21
1.009595880000009
 31
0.0
  0
LINE
  5
339
330
1F
100
AcDbEntity
  8
0
100
AcDbLine
 10
272.5314598699999
 20
1.009595880000009
 30
0.0
 11
274.5074701699999
 21
2.985606180000008
 31
0.0
  0
LINE
  5
33A
330
1F
100
AcDbEntity
  8
0
100
AcDbLine
 10
274.5074701699999
 20
2.985606180000008
 30
0.0
 11
293.2795680199999
 21
2.985606180000008
 31
0.0
  0
LINE
  5
33B
330
1F
100
AcDbEntity
  8
0
100
AcDbLine
 10
293.2795680199999
 20
2.985606180000008
 30
0.0
 11
295.2555783199997
 21
1.009595880000009
 31
0.0
  0
LINE
  5
33C
330
1F
100
AcDbEntity
  8
0
100
AcDbLine
 10
295.2555783199997
 20
1.009595880000009
 30
0.0
 11
321.9317173699999
 21
1.009595880000009
 31
0.0
  0
LINE
  5
33D
330
1F
100
AcDbEntity
  8
0
100
AcDbLine
 10
321.9317173699999
 20
1.009595880000009
 30
0.0
 11
323.9077276699998
 21
2.985606180000008
 31
0.0
  0
LINE
  5
33E
330
1F
100
AcDbEntity
  8
0
100
AcDbLine
 10
323.9077276699998
 20
2.985606180000008
 30
0.0
 11
342.6798255199999
 21
2.985606180000008
 31
0.0
  0
LINE
  5
33F
330
1F
100
AcDbEntity
  8
0
100
AcDbLine
 10
342.6798255199999
 20
2.985606180000008
 30
0.0
 11
344.6558358199998
 21
1.009595880000009
 31
0.0
  0
LINE
  5
340
330
1F
100
AcDbEntity
  8
0
100
AcDbLine
 10
344.6558358199998
 20
1.009595880000009
 30
0.0
 11
371.3319748699998
 21
1.009595880000009
 31
0.0
  0
LINE
  5
341
330
1F
100
AcDbEntity
  8
0
100
AcDbLine
 10
371.3319748699998
 20
1.009595880000009
 30
0.0
 11
373.3079851699998
 21
2.985606180000008
 31
0.0
  0
LINE
  5
342
330
1F
100
AcDbEntity
  8
0
100
AcDbLine
 10
373.3079851699998
 20
2.985606180000008
 30
0.0
 11
392.0800830199998
 21
2.985606180000008
 31
0.0
  0
LINE
  5
343
330
1F
100
AcDbEntity
  8
0
100
AcDbLine
 10
392.0800830199998
 20
2.985606180000008
 30
0.0
 11
394.0560933199998
 21
1.009595880000009
 31
0.0
  0
LINE
  5
344
330
1F
100
AcDbEntity
  8
0
100
AcDbLine
 10
394.0560933199998
 20
1.009595880000009
 30
0.0
 11
419.7442272199998
 21
1.009595880000009
 31
0.0
  0
ARC
  5
345
330
1F
100
AcDbEntity
  8
0
100
AcDbCircle
 10
419.7442272199998
 20
2.985606180000024
 30
0.0
 40
1.976010300000014
100
AcDbArc
 50
270.0
 51
323.1301023541556
  0
LINE
  5
346
330
1F
100
AcDbEntity
  8
0
100
AcDbLine
 10
421.3250354599998
 20
1.800000000000009
 30
0.0
 11
428.5250354599998
 21
11.4
 31
0.0
  0
ARC
  5
347
330
1F
100
AcDbEntity
  8
0
100
AcDbCircle
 10
431.7250354599998
 20
8.999999999999953
 30
0.0
 40
4.000000000000065
100
AcDbArc
 50
90.0
 51
143.1301023541558
  0
LINE
  5
348
330
1F
100
AcDbEntity
  8
0
100
AcDbLine
 10
431.7250354599998
 20
13.0
 30
0.0
 11
444.7250354599998
 21
13.0
 31
0.0
  0
ARC
  5
349
330
1F
100
AcDbEntity
  8
0
100
AcDbCircle
 10
444.7250354599998
 20
9.000000000000008
 30
0.0
 40
3.999999999999991
100
AcDbArc
 50
36.86989764584359
 51
89.9999999999992
  0
LINE
  5
34A
330
1F
100
AcDbEntity
  8
0
100
AcDbLine
 10
447.9250354599998
 20
11.4
 30
0.0
 11
455.1250354599998
 21
1.799999999999996
 31
0.0
  0
ARC
  5
34B
330
1F
100
AcDbEntity
  8
0
100
AcDbCircle
 10
456.7058437
 20
2.985606179999951
 30
0.0
 40
1.976010300000026
100
AcDbArc
 50
216.8698976458416
 51
269.9999999999965
  0
LINE
  5
34C
330
1F
100
AcDbEntity
  8
0
100
AcDbLine
 10
456.7058436999998
 20
1.009595879999969
 30
0.0
 11
482.3939776
 21
1.009595879999992
 31
0.0
  0
LINE
  5
34D
330
1F
100
AcDbEntity
  8
0
100
AcDbLine
 10
482.3939776
 20
1.009595879999992
 30
0.0
 11
484.3699878999998
 21
2.98560617999999
 31
0.0
  0
LINE
  5
34E
330
1F
100
AcDbEntity
  8
0
100
AcDbLine
 10
484.3699878999998
 20
2.98560617999999
 30
0.0
 11
503.1420857499998
 21
2.98560617999999
 31
0.0
  0
LINE
  5
34F
330
1F
100
AcDbEntity
  8
0
100
AcDbLine
 10
503.1420857499998
 20
2.98560617999999
 30
0.0
 11
505.1180960499998
 21
1.009595879999992
 31
0.0
  0
LINE
  5
350
330
1F
100
AcDbEntity
  8
0
100
AcDbLine
 10
505.1180960499998
 20
1.009595879999992
 30
0.0
 11
531.7942351000001
 21
1.009595879999992
 31
0.0
  0
LINE
  5
351
330
1F
100
AcDbEntity
  8
0
100
AcDbLine
 10
531.7942351000001
 20
1.009595879999992
 30
0.0
 11
533.7702454
 21
2.98560617999999
 31
0.0
  0
LINE
  5
352
330
1F
100
AcDbEntity
  8
0
100
AcDbLine
 10
533.7702454
 20
2.98560617999999
 30
0.0
 11
552.5423432500002
 21
2.98560617999999
 31
0.0
  0
LINE
  5
353
330
1F
100
AcDbEntity
  8
0
100
AcDbLine
 10
552.5423432500002
 20
2.98560617999999
 30
0.0
 11
554.51835355
 21
1.009595879999992
 31
0.0
  0
LINE
  5
354
330
1F
100
AcDbEntity
  8
0
100
AcDbLine
 10
554.51835355
 20
1.009595879999992
 30
0.0
 11
581.1944926000001
 21
1.009595879999992
 31
0.0
  0
LINE
  5
355
330
1F
100
AcDbEntity
  8
0
100
AcDbLine
 10
581.1944926000001
 20
1.009595879999992
 30
0.0
 11
583.1705029
 21
2.98560617999999
 31
0.0
  0
LINE
  5
356
330
1F
100
AcDbEntity
  8
0
100
AcDbLine
 10
583.1705029
 20
2.98560617999999
 30
0.0
 11
601.9426007500001
 21
2.98560617999999
 31
0.0
  0
LINE
  5
357
330
1F
100
AcDbEntity
  8
0
100
AcDbLine
 10
601.9426007500001
 20
2.98560617999999
 30
0.0
 11
603.91861105
 21
1.009595879999992
 31
0.0
  0
LINE
  5
358
330
1F
100
AcDbEntity
  8
0
100
AcDbLine
 10
603.91861105
 20
1.009595879999992
 30
0.0
 11
629.6067449500001
 21
1.009595879999992
 31
0.0
  0
ARC
  5
359
330
1F
100
AcDbEntity
  8
0
100
AcDbCircle
 10
629.60674495
 20
2.98560617999993
 30
0.0
 40
1.976010299999938
100
AcDbArc
 50
270.0000000000033
 51
323.1301023541583
  0
LINE
  5
35A
330
1F
100
AcDbEntity
  8
0
100
AcDbLine
 10
631.18755319
 20
1.800000000000023
 30
0.0
 11
638.3875531899998
 21
11.39999999999999
 31
0.0
  0
ARC
  5
35B
330
1F
100
AcDbEntity
  8
0
100
AcDbCircle
 10
641.58755319
 20
8.999999999999941
 30
0.0
 40
4.000000000000065
100
AcDbArc
 50
90.0
 51
143.1301023541558
  0
LINE
  5
35C
330
1F
100
AcDbEntity
  8
0
100
AcDbLine
 10
641.58755319
 20
12.99999999999999
 30
0.0
 11
654.58755319
 21
12.99999999999999
 31
0.0
  0
ARC
  5
35D
330
1F
100
AcDbEntity
  8
0
100
AcDbCircle
 10
654.58755319
 20
8.999999999999943
 30
0.0
 40
4.000000000000048
100
AcDbArc
 50
36.86989764584424
 51
90.0
  0
LINE
  5
35E
330
1F
100
AcDbEntity
  8
0
100
AcDbLine
 10
657.78755319
 20
11.39999999999999
 30
0.0
 11
664.98755319
 21
1.799999999999985
 31
0.0
  0
ARC
  5
35F
330
1F
100
AcDbEntity
  8
0
100
AcDbCircle
 10
666.5683614299998
 20
2.985606179999996
 30
0.0
 40
1.976010300000014
100
AcDbArc
 50
216.869897645844
 51
270.0
  0
LINE
  5
360
330
1F
100
AcDbEntity
  8
0
100
AcDbLine
 10
666.5683614299998
 20
1.00959587999998
 30
0.0
 11
692.25649533
 21
1.00959587999998
 31
0.0
  0
LINE
  5
361
330
1F
100
AcDbEntity
  8
0
100
AcDbLine
 10
692.25649533
 20
1.00959587999998
 30
0.0
 11
694.2325056299998
 21
2.985606179999978
 31
0.0
  0
LINE
  5
362
330
1F
100
AcDbEntity
  8
0
100
AcDbLine
 10
694.2325056299998
 20
2.985606179999978
 30
0.0
 11
713.0046034799999
 21
2.985606179999978
 31
0.0
  0
LINE
  5
363
330
1F
100
AcDbEntity
  8
0
100
AcDbLine
 10
713.0046034799999
 20
2.985606179999978
 30
0.0
 11
714.9806137799998
 21
1.00959587999998
 31
0.0
  0
LINE
  5
364
330
1F
100
AcDbEntity
  8
0
100
AcDbLine
 10
714.9806137799998
 20
1.00959587999998
 30
0.0
 11
741.6567528299999
 21
1.00959587999998
 31
0.0
  0
LINE
  5
365
330
1F
100
AcDbEntity
  8
0
100
AcDbLine
 10
741.6567528299999
 20
1.00959587999998
 30
0.0
 11
743.6327631299998
 21
2.985606179999978
 31
0.0
  0
LINE
  5
366
330
1F
100
AcDbEntity
  8
0
100
AcDbLine
 10
743.6327631299998
 20
2.985606179999978
 30
0.0
 11
762.4048609799999
 21
2.985606179999978
 31
0.0
  0
LINE
  5
367
330
1F
100
AcDbEntity
  8
0
100
AcDbLine
 10
762.4048609799999
 20
2.985606179999978
 30
0.0
 11
764.3808712799998
 21
1.00959587999998
 31
0.0
  0
LINE
  5
368
330
1F
100
AcDbEntity
  8
0
100
AcDbLine
 10
764.3808712799998
 20
1.00959587999998
 30
0.0
 11
791.05701033
 21
1.00959587999998
 31
0.0
  0
LINE
  5
369
330
1F
100
AcDbEntity
  8
0
100
AcDbLine
 10
791.05701033
 20
1.00959587999998
 30
0.0
 11
793.0330206299997
 21
2.985606179999978
 31
0.0
  0
LINE
  5
36A
330
1F
100
AcDbEntity
  8
0
100
AcDbLine
 10
793.0330206299997
 20
2.985606179999978
 30
0.0
 11
811.80511848
 21
2.985606179999978
 31
0.0
  0
LINE
  5
36B
330
1F
100
AcDbEntity
  8
0
100
AcDbLine
 10
811.80511848
 20
2.985606179999978
 30
0.0
 11
813.7811287799999
 21
1.00959587999998
 31
0.0
  0
LINE
  5
36C
330
1F
100
AcDbEntity
  8
0
100
AcDbLine
 10
813.7811287799999
 20
1.00959587999998
 30
0.0
 11
839.4692626800001
 21
1.00959587999998
 31
0.0
  0
ARC
  5
36D
330
1F
100
AcDbEntity
  8
0
100
AcDbCircle
 10
839.4692626799997
 20
2.985606179999918
 30
0.0
 40
1.976010299999938
100
AcDbArc
 50
270.0000000000033
 51
323.1301023541583
  0
LINE
  5
36E
330
1F
100
AcDbEntity
  8
0
100
AcDbLine
 10
841.0500709199999
 20
1.800000000000011
 30
0.0
 11
848.2500709199996
 21
11.4
 31
0.0
  0
ARC
  5
36F
330
1F
100
AcDbEntity
  8
0
100
AcDbCircle
 10
851.4500709199996
 20
8.999999999999953
 30
0.0
 40
4.000000000000065
100
AcDbArc
 50
90.0
 51
143.1301023541558
  0
LINE
  5
370
330
1F
100
AcDbEntity
  8
0
100
AcDbLine
 10
851.4500709199996
 20
13.0
 30
0.0
 11
864.4500709199999
 21
13.0
 31
0.0
  0
ARC
  5
371
330
1F
100
AcDbEntity
  8
0
100
AcDbCircle
 10
864.4500709199999
 20
8.999999999999957
 30
0.0
 40
4.000000000000048
100
AcDbArc
 50
36.86989764584424
 51
90.0
  0
LINE
  5
372
330
1F
100
AcDbEntity
  8
0
100
AcDbLine
 10
867.6500709199999
 20
11.40000000000001
 30
0.0
 11
874.8500709199996
 21
1.8
 31
0.0
  0
ARC
  5
373
330
1F
100
AcDbEntity
  8
0
100
AcDbCircle
 10
876.4500709199996
 20
3.000000000000035
 30
0.0
 40
2.000000000000038
100
AcDbArc
 50
216.8698976458444
 51
270.0
  0
LINE
  5
374
330
1F
100
AcDbEntity
  8
0
100
AcDbLine
 10
876.4500709199996
 20
1.000000000000007
 30
0.0
 11
888.4500709199997
 21
1.000000000000007
 31
0.0
  0
ENDSEC
  0
SECTION
  2
OBJECTS
  0
DICTIONARY
  5
C
330
0
100
AcDbDictionary
281
     1
  3
ACAD_GROUP
350
D
  3
ACAD_LAYOUT
350
1A
  3
ACAD_MLINESTYLE
350
17
  3
ACAD_PLOTSETTINGS
350
19
  3
ACAD_PLOTSTYLENAME
350
E
  3
ACDBHEADERROUNDTRIPXREC
350
380
  0
DICTIONARY
  5
232
330
1F
100
AcDbDictionary
280
     1
281
     1
  3
ACAD_LAYOUTSELFREF
360
26B
  0
DICTIONARY
  5
234
330
1B
100
AcDbDictionary
280
     1
281
     1
  3
ACAD_LAYOUTSELFREF
360
26A
  0
DICTIONARY
  5
236
330
23
100
AcDbDictionary
280
     1
281
     1
  3
ACAD_LAYOUTSELFREF
360
26C
  0
DICTIONARY
  5
D
102
{ACAD_REACTORS
330
C
102
}
330
C
100
AcDbDictionary
281
     1
  0
DICTIONARY
  5
1A
102
{ACAD_REACTORS
330
C
102
}
330
C
100
AcDbDictionary
281
     1
  3
Layout1
350
1E
  3
Layout2
350
26
  3
Model
350
22
  0
DICTIONARY
  5
17
102
{ACAD_REACTORS
330
C
102
}
330
C
100
AcDbDictionary
281
     1
  3
Standard
350
18
  0
DICTIONARY
  5
19
102
{ACAD_REACTORS
330
C
102
}
330
C
100
AcDbDictionary
281
     1
  0
ACDBDICTIONARYWDFLT
  5
E
102
{ACAD_REACTORS
330
C
102
}
330
C
100
AcDbDictionary
281
     1
  3
Normal
350
F
100
AcDbDictionaryWithDefault
340
F
  0
DICTIONARY
  5
380
102
{ACAD_REACTORS
330
C
102
}
330
C
100
AcDbDictionary
281
     1
  3
CEPSNTYPE
350
38A
  3
FINGERPRINTGUID
350
38B
  3
HYPERLINKBASE
350
383
  3
INSUNITS
350
389
  3
LAYOUTDICT
350
385
  3
LWETCUNION
350
388
  3
PLOTSETDICT
350
386
  3
PLOTSTYLNAMDICT
350
387
  3
PSVPSCALE
350
38D
  3
PUCSBASE
350
390
  3
PUCSORGBACK
350
396
  3
PUCSORGBOTTOM
350
392
  3
PUCSORGFRONT
350
395
  3
PUCSORGLEFT
350
393
  3
PUCSORGRIGHT
350
394
  3
PUCSORGTOP
350
391
  3
PUCSORTHOREF
350
38E
  3
PUCSORTHOVIEW
350
38F
  3
STYLESHEET
350
384
  3
TSTACKALIGN
350
381
  3
TSTACKSIZE
350
382
  3
UCSBASE
350
399
  3
UCSORGBACK
350
39F
  3
UCSORGBOTTOM
350
39B
  3
UCSORGFRONT
350
39E
  3
UCSORGLEFT
350
39C
  3
UCSORGRIGHT
350
39D
  3
UCSORGTOP
350
39A
  3
UCSORTHOREF
350
397
  3
UCSORTHOVIEW
350
398
  3
VERSIONGUID
350
38C
  0
XRECORD
  5
26B
102
{ACAD_REACTORS
330
232
102
}
330
232
100
AcDbXrecord
280
     1
340
1F
  0
XRECORD
  5
26A
102
{ACAD_REACTORS
330
234
102
}
330
234
100
AcDbXrecord
280
     1
340
1B
  0
XRECORD
  5
26C
102
{ACAD_REACTORS
330
236
102
}
330
236
100
AcDbXrecord
280
     1
340
23
  0
LAYOUT
  5
1E
102
{ACAD_REACTORS
330
1A
102
}
330
1A
100
AcDbPlotSettings
  1

  2

  4

  6

 40
0.0
 41
0.0
 42
0.0
 43
0.0
 44
0.0
 45
0.0
 46
0.0
 47
0.0
 48
0.0
 49
0.0
140
0.0
141
0.0
142
1.0
143
1.0
 70
   688
 72
     0
 73
     0
 74
     5
  7

 75
    16
147
1.0
148
0.0
149
0.0
100
AcDbLayout
  1
Layout1
 70
     1
 71
     1
 10
0.0
 20
0.0
 11
12.0
 21
9.0
 12
0.0
 22
0.0
 32
0.0
 14
1.000000000000000E+20
 24
1.000000000000000E+20
 34
1.000000000000000E+20
 15
-1.000000000000000E+20
 25
-1.000000000000000E+20
 35
-1.000000000000000E+20
146
0.0
 13
0.0
 23
0.0
 33
0.0
 16
1.0
 26
0.0
 36
0.0
 17
0.0
 27
1.0
 37
0.0
 76
     0
330
1B
  0
LAYOUT
  5
26
102
{ACAD_REACTORS
330
1A
102
}
330
1A
100
AcDbPlotSettings
  1

  2

  4

  6

 40
0.0
 41
0.0
 42
0.0
 43
0.0
 44
0.0
 45
0.0
 46
0.0
 47
0.0
 48
0.0
 49
0.0
140
0.0
141
0.0
142
1.0
143
1.0
 70
   688
 72
     0
 73
     0
 74
     5
  7

 75
    16
147
1.0
148
0.0
149
0.0
100
AcDbLayout
  1
Layout2
 70
     1
 71
     2
 10
0.0
 20
0.0
 11
12.0
 21
9.0
 12
0.0
 22
0.0
 32
0.0
 14
0.0
 24
0.0
 34
0.0
 15
0.0
 25
0.0
 35
0.0
146
0.0
 13
0.0
 23
0.0
 33
0.0
 16
1.0
 26
0.0
 36
0.0
 17
0.0
 27
1.0
 37
0.0
 76
     0
330
23
  0
LAYOUT
  5
22
102
{ACAD_REACTORS
330
1A
102
}
330
1A
100
AcDbPlotSettings
  1

  2

  4

  6

 40
0.0
 41
0.0
 42
0.0
 43
0.0
 44
0.0
 45
0.0
 46
0.0
 47
0.0
 48
0.0
 49
0.0
140
0.0
141
0.0
142
1.0
143
1.0
 70
  1712
 72
     0
 73
     0
 74
     0
  7

 75
     0
147
1.0
148
0.0
149
0.0
100
AcDbLayout
  1
Model
 70
     1
 71
     0
 10
0.0
 20
0.0
 11
12.0
 21
9.0
 12
0.0
 22
0.0
 32
0.0
 14
0.0
 24
0.0
 34
0.0
 15
0.0
 25
0.0
 35
0.0
146
0.0
 13
0.0
 23
0.0
 33
0.0
 16
1.0
 26
0.0
 36
0.0
 17
0.0
 27
1.0
 37
0.0
 76
     0
330
1F
  0
MLINESTYLE
  5
18
102
{ACAD_REACTORS
330
17
102
}
330
17
100
AcDbMlineStyle
  2
STANDARD
 70
     0
  3

 62
   256
 51
90.0
 52
90.0
 71
     2
 49
0.5
 62
   256
  6
BYLAYER
 49
-0.5
 62
   256
  6
BYLAYER
  0
ACDBPLACEHOLDER
  5
F
102
{ACAD_REACTORS
330
E
102
}
330
E
  0
XRECORD
  5
38A
102
{ACAD_REACTORS
330
380
102
}
330
380
100
AcDbXrecord
280
     1
 90
        0
  0
XRECORD
  5
38B
102
{ACAD_REACTORS
330
380
102
}
330
380
100
AcDbXrecord
280
     1
  1
{FDEAD576-A652-11D2-9A35-0060089B3A3F}
  0
XRECORD
  5
383
102
{ACAD_REACTORS
330
380
102
}
330
380
100
AcDbXrecord
280
     1
  1

  0
XRECORD
  5
389
102
{ACAD_REACTORS
330
380
102
}
330
380
100
AcDbXrecord
280
     1
 90
        4
  0
XRECORD
  5
385
102
{ACAD_REACTORS
330
380
102
}
330
380
100
AcDbXrecord
280
     1
340
1A
  0
XRECORD
  5
388
102
{ACAD_REACTORS
330
380
102
}
330
380
100
AcDbXrecord
280
     1
 90
    10781
  0
XRECORD
  5
386
102
{ACAD_REACTORS
330
380
102
}
330
380
100
AcDbXrecord
280
     1
340
19
  0
XRECORD
  5
387
102
{ACAD_REACTORS
330
380
102
}
330
380
100
AcDbXrecord
280
     1
340
E
  0
XRECORD
  5
38D
102
{ACAD_REACTORS
330
380
102
}
330
380
100
AcDbXrecord
280
     1
 40
0.0
  0
XRECORD
  5
390
102
{ACAD_REACTORS
330
380
102
}
330
380
100
AcDbXrecord
280
     1
340
0
  0
XRECORD
  5
396
102
{ACAD_REACTORS
330
380
102
}
330
380
100
AcDbXrecord
280
     1
 10
0.0
 20
0.0
 30
0.0
  0
XRECORD
  5
392
102
{ACAD_REACTORS
330
380
102
}
330
380
100
AcDbXrecord
280
     1
 10
0.0
 20
0.0
 30
0.0
  0
XRECORD
  5
395
102
{ACAD_REACTORS
330
380
102
}
330
380
100
AcDbXrecord
280
     1
 10
0.0
 20
0.0
 30
0.0
  0
XRECORD
  5
393
102
{ACAD_REACTORS
330
380
102
}
330
380
100
AcDbXrecord
280
     1
 10
0.0
 20
0.0
 30
0.0
  0
XRECORD
  5
394
102
{ACAD_REACTORS
330
380
102
}
330
380
100
AcDbXrecord
280
     1
 10
0.0
 20
0.0
 30
0.0
  0
XRECORD
  5
391
102
{ACAD_REACTORS
330
380
102
}
330
380
100
AcDbXrecord
280
     1
 10
0.0
 20
0.0
 30
0.0
  0
XRECORD
  5
38E
102
{ACAD_REACTORS
330
380
102
}
330
380
100
AcDbXrecord
280
     1
340
0
  0
XRECORD
  5
38F
102
{ACAD_REACTORS
330
380
102
}
330
380
100
AcDbXrecord
280
     1
 70
     0
  0
XRECORD
  5
384
102
{ACAD_REACTORS
330
380
102
}
330
380
100
AcDbXrecord
280
     1
  1

  0
XRECORD
  5
381
102
{ACAD_REACTORS
330
380
102
}
330
380
100
AcDbXrecord
280
     1
 90
        1
  0
XRECORD
  5
382
102
{ACAD_REACTORS
330
380
102
}
330
380
100
AcDbXrecord
280
     1
 90
       70
  0
XRECORD
  5
399
102
{ACAD_REACTORS
330
380
102
}
330
380
100
AcDbXrecord
280
     1
340
0
  0
XRECORD
  5
39F
102
{ACAD_REACTORS
330
380
102
}
330
380
100
AcDbXrecord
280
     1
 10
0.0
 20
0.0
 30
0.0
  0
XRECORD
  5
39B
102
{ACAD_REACTORS
330
380
102
}
330
380
100
AcDbXrecord
280
     1
 10
0.0
 20
0.0
 30
0.0
  0
XRECORD
  5
39E
102
{ACAD_REACTORS
330
380
102
}
330
380
100
AcDbXrecord
280
     1
 10
0.0
 20
0.0
 30
0.0
  0
XRECORD
  5
39C
102
{ACAD_REACTORS
330
380
102
}
330
380
100
AcDbXrecord
280
     1
 10
0.0
 20
0.0
 30
0.0
  0
XRECORD
  5
39D
102
{ACAD_REACTORS
330
380
102
}
330
380
100
AcDbXrecord
280
     1
 10
0.0
 20
0.0
 30
0.0
  0
XRECORD
  5
39A
102
{ACAD_REACTORS
330
380
102
}
330
380
100
AcDbXrecord
280
     1
 10
0.0
 20
0.0
 30
0.0
  0
XRECORD
  5
397
102
{ACAD_REACTORS
330
380
102
}
330
380
100
AcDbXrecord
280
     1
340
0
  0
XRECORD
  5
398
102
{ACAD_REACTORS
330
380
102
}
330
380
100
AcDbXrecord
280
     1
 70
     0
  0
XRECORD
  5
38C
102
{ACAD_REACTORS
330
380
102
}
330
380
100
AcDbXrecord
280
     1
  1
{B2959B19-DA94-412B-9483-2FC62FBA17AC}
  0
ENDSEC
  0
EOF
